  0
SECTION
  2
HEADER
  9
$ACADVER
  1
AC1021
  9
$ACADMAINTVER
 70
    25
  9
$DWGCODEPAGE
  3
ANSI_1252
  9
$INSBASE
 10
0.0
 20
0.0
 30
0.0
  9
$EXTMIN
 10
-2.814570866141732
 20
-0.0276377952755906
 30
0.0
  9
$EXTMAX
 10
0.1923740157480315
 20
3.978905511811023
 30
0.0
  9
$LIMMIN
 10
0.0
 20
0.0
  9
$LIMMAX
 10
12.0
 20
9.0
  9
$ORTHOMODE
 70
     0
  9
$REGENMODE
 70
     1
  9
$FILLMODE
 70
     1
  9
$QTEXTMODE
 70
     0
  9
$MIRRTEXT
 70
     1
  9
$LTSCALE
 40
1.0
  9
$ATTMODE
 70
     1
  9
$TEXTSIZE
 40
0.2
  9
$TRACEWID
 40
0.05
  9
$TEXTSTYLE
  7
Standard
  9
$CLAYER
  8
0
  9
$CELTYPE
  6
ByLayer
  9
$CECOLOR
 62
   256
  9
$CELTSCALE
 40
1.0
  9
$DISPSILH
 70
     0
  9
$DIMSCALE
 40
1.0
  9
$DIMASZ
 40
0.18
  9
$DIMEXO
 40
0.0625
  9
$DIMDLI
 40
0.38
  9
$DIMRND
 40
0.0
  9
$DIMDLE
 40
0.0
  9
$DIMEXE
 40
0.18
  9
$DIMTP
 40
0.0
  9
$DIMTM
 40
0.0
  9
$DIMTXT
 40
0.18
  9
$DIMCEN
 40
0.09
  9
$DIMTSZ
 40
0.0
  9
$DIMTOL
 70
     0
  9
$DIMLIM
 70
     0
  9
$DIMTIH
 70
     1
  9
$DIMTOH
 70
     1
  9
$DIMSE1
 70
     0
  9
$DIMSE2
 70
     0
  9
$DIMTAD
 70
     0
  9
$DIMZIN
 70
     0
  9
$DIMBLK
  1

  9
$DIMASO
 70
     1
  9
$DIMSHO
 70
     1
  9
$DIMPOST
  1

  9
$DIMAPOST
  1

  9
$DIMALT
 70
     0
  9
$DIMALTD
 70
     2
  9
$DIMALTF
 40
25.4
  9
$DIMLFAC
 40
1.0
  9
$DIMTOFL
 70
     0
  9
$DIMTVP
 40
0.0
  9
$DIMTIX
 70
     0
  9
$DIMSOXD
 70
     0
  9
$DIMSAH
 70
     0
  9
$DIMBLK1
  1

  9
$DIMBLK2
  1

  9
$DIMSTYLE
  2
Standard
  9
$DIMCLRD
 70
     0
  9
$DIMCLRE
 70
     0
  9
$DIMCLRT
 70
     0
  9
$DIMTFAC
 40
1.0
  9
$DIMGAP
 40
0.09
  9
$DIMJUST
 70
     0
  9
$DIMSD1
 70
     0
  9
$DIMSD2
 70
     0
  9
$DIMTOLJ
 70
     1
  9
$DIMTZIN
 70
     0
  9
$DIMALTZ
 70
     0
  9
$DIMALTTZ
 70
     0
  9
$DIMUPT
 70
     0
  9
$DIMDEC
 70
     4
  9
$DIMTDEC
 70
     4
  9
$DIMALTU
 70
     2
  9
$DIMALTTD
 70
     2
  9
$DIMTXSTY
  7
Standard
  9
$DIMAUNIT
 70
     0
  9
$DIMADEC
 70
     0
  9
$DIMALTRND
 40
0.0
  9
$DIMAZIN
 70
     0
  9
$DIMDSEP
 70
    46
  9
$DIMATFIT
 70
     3
  9
$DIMFRAC
 70
     0
  9
$DIMLDRBLK
  1

  9
$DIMLUNIT
 70
     2
  9
$DIMLWD
 70
    -2
  9
$DIMLWE
 70
    -2
  9
$DIMTMOVE
 70
     0
  9
$DIMFXL
 40
1.0
  9
$DIMFXLON
 70
     0
  9
$DIMJOGANG
 40
0.7853981633974483
  9
$DIMTFILL
 70
     0
  9
$DIMTFILLCLR
 70
     0
  9
$DIMARCSYM
 70
     0
  9
$DIMLTYPE
  6

  9
$DIMLTEX1
  6

  9
$DIMLTEX2
  6

  9
$LUNITS
 70
     2
  9
$LUPREC
 70
     4
  9
$SKETCHINC
 40
0.1
  9
$FILLETRAD
 40
0.5
  9
$AUNITS
 70
     0
  9
$AUPREC
 70
     0
  9
$MENU
  1
.
  9
$ELEVATION
 40
0.0
  9
$PELEVATION
 40
0.0
  9
$THICKNESS
 40
0.0
  9
$LIMCHECK
 70
     0
  9
$CHAMFERA
 40
0.5
  9
$CHAMFERB
 40
0.5
  9
$CHAMFERC
 40
1.0
  9
$CHAMFERD
 40
0.0
  9
$SKPOLY
 70
     0
  9
$TDCREATE
 40
2457096.124662025
  9
$TDUCREATE
 40
2457096.332995359
  9
$TDUPDATE
 40
2457096.124662037
  9
$TDUUPDATE
 40
2457096.33299537
  9
$TDINDWG
 40
0.0000000116
  9
$TDUSRTIMER
 40
0.0000000116
  9
$USRTIMER
 70
     1
  9
$ANGBASE
 50
0.0
  9
$ANGDIR
 70
     0
  9
$PDMODE
 70
     0
  9
$PDSIZE
 40
0.0
  9
$PLINEWID
 40
0.0
  9
$SPLFRAME
 70
     0
  9
$SPLINETYPE
 70
     6
  9
$SPLINESEGS
 70
     8
  9
$HANDSEED
  5
76
  9
$SURFTAB1
 70
     6
  9
$SURFTAB2
 70
     6
  9
$SURFTYPE
 70
     6
  9
$SURFU
 70
     6
  9
$SURFV
 70
     6
  9
$UCSBASE
  2

  9
$UCSNAME
  2

  9
$UCSORG
 10
0.0
 20
0.0
 30
0.0
  9
$UCSXDIR
 10
1.0
 20
0.0
 30
0.0
  9
$UCSYDIR
 10
0.0
 20
1.0
 30
0.0
  9
$UCSORTHOREF
  2

  9
$UCSORTHOVIEW
 70
     0
  9
$UCSORGTOP
 10
0.0
 20
0.0
 30
0.0
  9
$UCSORGBOTTOM
 10
0.0
 20
0.0
 30
0.0
  9
$UCSORGLEFT
 10
0.0
 20
0.0
 30
0.0
  9
$UCSORGRIGHT
 10
0.0
 20
0.0
 30
0.0
  9
$UCSORGFRONT
 10
0.0
 20
0.0
 30
0.0
  9
$UCSORGBACK
 10
0.0
 20
0.0
 30
0.0
  9
$PUCSBASE
  2

  9
$PUCSNAME
  2

  9
$PUCSORG
 10
0.0
 20
0.0
 30
0.0
  9
$PUCSXDIR
 10
1.0
 20
0.0
 30
0.0
  9
$PUCSYDIR
 10
0.0
 20
1.0
 30
0.0
  9
$PUCSORTHOREF
  2

  9
$PUCSORTHOVIEW
 70
     0
  9
$PUCSORGTOP
 10
0.0
 20
0.0
 30
0.0
  9
$PUCSORGBOTTOM
 10
0.0
 20
0.0
 30
0.0
  9
$PUCSORGLEFT
 10
0.0
 20
0.0
 30
0.0
  9
$PUCSORGRIGHT
 10
0.0
 20
0.0
 30
0.0
  9
$PUCSORGFRONT
 10
0.0
 20
0.0
 30
0.0
  9
$PUCSORGBACK
 10
0.0
 20
0.0
 30
0.0
  9
$USERI1
 70
     0
  9
$USERI2
 70
     0
  9
$USERI3
 70
     0
  9
$USERI4
 70
     0
  9
$USERI5
 70
     0
  9
$USERR1
 40
0.0
  9
$USERR2
 40
0.0
  9
$USERR3
 40
0.0
  9
$USERR4
 40
0.0
  9
$USERR5
 40
0.0
  9
$WORLDVIEW
 70
     1
  9
$SHADEDGE
 70
     3
  9
$SHADEDIF
 70
    70
  9
$TILEMODE
 70
     1
  9
$MAXACTVP
 70
    64
  9
$PINSBASE
 10
0.0
 20
0.0
 30
0.0
  9
$PLIMCHECK
 70
     0
  9
$PEXTMIN
 10
1.000000000000000E+20
 20
1.000000000000000E+20
 30
1.000000000000000E+20
  9
$PEXTMAX
 10
-1.000000000000000E+20
 20
-1.000000000000000E+20
 30
-1.000000000000000E+20
  9
$PLIMMIN
 10
0.0
 20
0.0
  9
$PLIMMAX
 10
12.0
 20
9.0
  9
$UNITMODE
 70
     0
  9
$VISRETAIN
 70
     1
  9
$PLINEGEN
 70
     0
  9
$PSLTSCALE
 70
     1
  9
$TREEDEPTH
 70
  3020
  9
$CMLSTYLE
  2
Standard
  9
$CMLJUST
 70
     0
  9
$CMLSCALE
 40
1.0
  9
$PROXYGRAPHICS
 70
     1
  9
$MEASUREMENT
 70
     0
  9
$CELWEIGHT
370
    -1
  9
$ENDCAPS
280
     0
  9
$JOINSTYLE
280
     0
  9
$LWDISPLAY
290
     0
  9
$INSUNITS
 70
     1
  9
$HYPERLINKBASE
  1

  9
$STYLESHEET
  1

  9
$XEDIT
290
     1
  9
$CEPSNTYPE
380
     0
  9
$PSTYLEMODE
290
     1
  9
$FINGERPRINTGUID
  2
{FEF91E26-54B1-4B9D-AF8E-63E1B6434757}
  9
$VERSIONGUID
  2
{FAEB1C32-E019-11D5-929B-00C0DF256EC4}
  9
$EXTNAMES
290
     1
  9
$PSVPSCALE
 40
0.0
  9
$OLESTARTUP
290
     0
  9
$SORTENTS
280
   127
  9
$INDEXCTL
280
     0
  9
$HIDETEXT
280
     1
  9
$XCLIPFRAME
290
     0
  9
$HALOGAP
280
     0
  9
$OBSCOLOR
 70
   257
  9
$OBSLTYPE
280
     0
  9
$INTERSECTIONDISPLAY
280
     0
  9
$INTERSECTIONCOLOR
 70
   257
  9
$DIMASSOC
280
     2
  9
$PROJECTNAME
  1

  9
$CAMERADISPLAY
290
     0
  9
$LENSLENGTH
 40
50.0
  9
$CAMERAHEIGHT
 40
0.0
  9
$STEPSPERSEC
 40
2.0
  9
$STEPSIZE
 40
6.0
  9
$3DDWFPREC
 40
2.0
  9
$PSOLWIDTH
 40
0.25
  9
$PSOLHEIGHT
 40
4.0
  9
$LOFTANG1
 40
1.570796326794897
  9
$LOFTANG2
 40
1.570796326794897
  9
$LOFTMAG1
 40
0.0
  9
$LOFTMAG2
 40
0.0
  9
$LOFTPARAM
 70
     7
  9
$LOFTNORMALS
280
     1
  9
$LATITUDE
 40
37.795
  9
$LONGITUDE
 40
-122.394
  9
$NORTHDIRECTION
 40
0.0
  9
$TIMEZONE
 70
 -8000
  9
$LIGHTGLYPHDISPLAY
280
     1
  9
$TILEMODELIGHTSYNCH
280
     1
  9
$SOLIDHIST
280
     1
  9
$SHOWHIST
280
     1
  9
$DWFFRAME
280
     2
  9
$DGNFRAME
280
     2
  9
$REALWORLDSCALE
290
     1
  9
$INTERFERECOLOR
 62
   256
  9
$CSHADOW
280
     0
  9
$SHADOWPLANELOCATION
 40
0.0
  0
ENDSEC
  0
SECTION
  2
CLASSES
  0
CLASS
  1
ACDBDICTIONARYWDFLT
  2
AcDbDictionaryWithDefault
  3
ObjectDBX Classes
 90
        0
 91
        3
280
     0
281
     0
  0
CLASS
  1
VISUALSTYLE
  2
AcDbVisualStyle
  3
ObjectDBX Classes
 90
     4095
 91
        3
280
     0
281
     0
  0
CLASS
  1
SCALE
  2
AcDbScale
  3
ObjectDBX Classes
 90
     1153
 91
        3
280
     0
281
     0
  0
ENDSEC
  0
SECTION
  2
TABLES
  0
TABLE
  2
VPORT
  5
8
330
0
100
AcDbSymbolTable
 70
     1
  0
VPORT
  5
29
330
8
100
AcDbSymbolTableRecord
100
AcDbViewportTableRecord
  2
*Active
 70
     0
 10
0.0
 20
0.0
 11
1.0
 21
1.0
 12
10.42990654205607
 22
4.5
 13
0.0
 23
0.0
 14
0.5
 24
0.5
 15
0.5
 25
0.5
 16
0.0
 26
0.0
 36
1.0
 17
0.0
 27
0.0
 37
0.0
 40
9.0
 41
1.972972972850329
 42
50.0
 43
0.0
 44
0.0
 50
0.0
 51
0.0
 71
     0
 72
   100
 73
     1
 74
     3
 75
     0
 76
     0
 77
     0
 78
     0
281
     0
 65
     1
110
0.0
120
0.0
130
0.0
111
1.0
121
0.0
131
0.0
112
0.0
122
1.0
132
0.0
 79
     0
146
0.0
 60
     3
 61
     5
292
     1
282
     1
141
0.0
142
0.0
 63
   256
  0
ENDTAB
  0
TABLE
  2
LTYPE
  5
5
330
0
100
AcDbSymbolTable
 70
     1
  0
LTYPE
  5
14
330
5
100
AcDbSymbolTableRecord
100
AcDbLinetypeTableRecord
  2
ByBlock
 70
     0
  3

 72
    65
 73
     0
 40
0.0
  0
LTYPE
  5
15
330
5
100
AcDbSymbolTableRecord
100
AcDbLinetypeTableRecord
  2
ByLayer
 70
     0
  3

 72
    65
 73
     0
 40
0.0
  0
LTYPE
  5
16
330
5
100
AcDbSymbolTableRecord
100
AcDbLinetypeTableRecord
  2
Continuous
 70
     0
  3
Solid line
 72
    65
 73
     0
 40
0.0
  0
ENDTAB
  0
TABLE
  2
LAYER
  5
2
330
0
100
AcDbSymbolTable
 70
     2
  0
LAYER
  5
10
330
2
100
AcDbSymbolTableRecord
100
AcDbLayerTableRecord
  2
0
 70
     0
 62
     7
  6
Continuous
370
    -3
390
F
347
0
  0
LAYER
  5
5E
330
2
100
AcDbSymbolTableRecord
100
AcDbLayerTableRecord
  2
Layer 1
 70
     0
 62
     7
  6
Continuous
370
    -3
390
F
347
0
  0
ENDTAB
  0
TABLE
  2
STYLE
  5
3
330
0
100
AcDbSymbolTable
 70
     1
  0
STYLE
  5
11
330
3
100
AcDbSymbolTableRecord
100
AcDbTextStyleTableRecord
  2
Standard
 70
     0
 40
0.0
 41
1.0
 50
0.0
 71
     0
 42
0.2
  3
txt
  4

  0
ENDTAB
  0
TABLE
  2
VIEW
  5
6
330
0
100
AcDbSymbolTable
 70
     0
  0
ENDTAB
  0
TABLE
  2
UCS
  5
7
330
0
100
AcDbSymbolTable
 70
     0
  0
ENDTAB
  0
TABLE
  2
APPID
  5
9
330
0
100
AcDbSymbolTable
 70
     2
  0
APPID
  5
12
330
9
100
AcDbSymbolTableRecord
100
AcDbRegAppTableRecord
  2
ACAD
 70
     0
  0
APPID
  5
5D
330
9
100
AcDbSymbolTableRecord
100
AcDbRegAppTableRecord
  2
ODA
 70
     0
  0
ENDTAB
  0
TABLE
  2
DIMSTYLE
  5
A
330
0
100
AcDbSymbolTable
 70
     1
100
AcDbDimStyleTable
  0
DIMSTYLE
105
27
330
A
100
AcDbSymbolTableRecord
100
AcDbDimStyleTableRecord
  2
Standard
 70
     0
340
11
  0
ENDTAB
  0
TABLE
  2
BLOCK_RECORD
  5
1
330
0
100
AcDbSymbolTable
 70
     1
  0
BLOCK_RECORD
  5
1F
330
1
100
AcDbSymbolTableRecord
100
AcDbBlockTableRecord
  2
*Model_Space
340
22
 70
     0
280
     1
281
     0
  0
BLOCK_RECORD
  5
1B
330
1
100
AcDbSymbolTableRecord
100
AcDbBlockTableRecord
  2
*Paper_Space
340
1E
 70
     0
280
     1
281
     0
  0
BLOCK_RECORD
  5
23
330
1
100
AcDbSymbolTableRecord
100
AcDbBlockTableRecord
  2
*Paper_Space0
340
26
 70
     0
280
     1
281
     0
  0
ENDTAB
  0
ENDSEC
  0
SECTION
  2
BLOCKS
  0
BLOCK
  5
20
330
1F
100
AcDbEntity
  8
0
100
AcDbBlockBegin
  2
*Model_Space
 70
     0
 10
0.0
 20
0.0
 30
0.0
  3
*Model_Space
  1

  0
ENDBLK
  5
21
330
1F
100
AcDbEntity
  8
0
100
AcDbBlockEnd
  0
BLOCK
  5
1C
330
1B
100
AcDbEntity
 67
     1
  8
0
100
AcDbBlockBegin
  2
*Paper_Space
 70
     0
 10
0.0
 20
0.0
 30
0.0
  3
*Paper_Space
  1

  0
ENDBLK
  5
1D
330
1B
100
AcDbEntity
 67
     1
  8
0
100
AcDbBlockEnd
  0
BLOCK
  5
24
330
23
100
AcDbEntity
  8
0
100
AcDbBlockBegin
  2
*Paper_Space0
 70
     0
 10
0.0
 20
0.0
 30
0.0
  3
*Paper_Space0
  1

  0
ENDBLK
  5
25
330
23
100
AcDbEntity
  8
0
100
AcDbBlockEnd
  0
ENDSEC
  0
SECTION
  2
ENTITIES
  0
SPLINE
  5
5F
330
1F
100
AcDbEntity
  8
Layer 1
 62
   250
370
     9
100
AcDbSpline
210
0.0
220
0.0
230
1.0
 70
    11
 71
     3
 72
    28
 73
    24
 74
     0
 42
0.0000000001
 43
0.0000000001
 40
0.0
 40
0.0
 40
0.0
 40
0.0
 40
0.1666666666666667
 40
0.1666666666666667
 40
0.1666666666666667
 40
0.1666666666666667
 40
0.3333333333333333
 40
0.3333333333333333
 40
0.3333333333333333
 40
0.3333333333333333
 40
0.5
 40
0.5
 40
0.5
 40
0.5
 40
0.6666666666666666
 40
0.6666666666666666
 40
0.6666666666666666
 40
0.6666666666666666
 40
0.8333333333333333
 40
0.8333333333333333
 40
0.8333333333333333
 40
0.8333333333333333
 40
1.0
 40
1.0
 40
1.0
 40
1.0
 10
-1.196255905511811
 20
2.182381889763779
 30
0.0
 10
-1.196255905511811
 20
2.182381889763779
 30
0.0
 10
-0.5140157480314961
 20
2.467062992125984
 30
0.0
 10
-0.5140157480314961
 20
2.467062992125984
 30
0.0
 10
-0.5140157480314961
 20
2.467062992125984
 30
0.0
 10
-0.5673622047244095
 20
2.607909448818898
 30
0.0
 10
-0.6024566929133858
 20
2.746015748031496
 30
0.0
 10
-0.6192874015748031
 20
2.88138188976378
 30
0.0
 10
-0.6192874015748031
 20
2.88138188976378
 30
0.0
 10
-0.6424330708661418
 20
3.041133858267716
 30
0.0
 10
-0.6139133858267717
 20
3.241299212598425
 30
0.0
 10
-0.5337283464566929
 20
3.481866141732283
 30
0.0
 10
-0.5337283464566929
 20
3.481866141732283
 30
0.0
 10
-0.7284803149606299
 20
3.336913385826771
 30
0.0
 10
-0.8778622047244095
 20
3.167834645669291
 30
0.0
 10
-0.9818661417322835
 20
2.974633858267717
 30
0.0
 10
-0.9818661417322835
 20
2.974633858267717
 30
0.0
 10
-1.078299212598425
 20
2.790141732283465
 30
0.0
 10
-1.166874015748032
 20
2.519700787401575
 30
0.0
 10
-1.24757874015748
 20
2.163322834645669
 30
0.0
 10
-1.24757874015748
 20
2.163322834645669
 30
0.0
 10
-1.24757874015748
 20
2.163322834645669
 30
0.0
 10
-1.196255905511811
 20
2.182381889763779
 30
0.0
 10
-1.196255905511811
 20
2.182381889763779
 30
0.0
  0
SPLINE
  5
60
330
1F
100
AcDbEntity
  8
Layer 1
 62
   250
370
     9
100
AcDbSpline
210
0.0
220
0.0
230
1.0
 70
    11
 71
     3
 72
    40
 73
    36
 74
     0
 42
0.0000000001
 43
0.0000000001
 40
0.0
 40
0.0
 40
0.0
 40
0.0
 40
0.1111111111111111
 40
0.1111111111111111
 40
0.1111111111111111
 40
0.1111111111111111
 40
0.2222222222222222
 40
0.2222222222222222
 40
0.2222222222222222
 40
0.2222222222222222
 40
0.3333333333333333
 40
0.3333333333333333
 40
0.3333333333333333
 40
0.3333333333333333
 40
0.4444444444444444
 40
0.4444444444444444
 40
0.4444444444444444
 40
0.4444444444444444
 40
0.5555555555555556
 40
0.5555555555555556
 40
0.5555555555555556
 40
0.5555555555555556
 40
0.6666666666666667
 40
0.6666666666666667
 40
0.6666666666666667
 40
0.6666666666666667
 40
0.7777777777777779
 40
0.7777777777777779
 40
0.7777777777777779
 40
0.7777777777777779
 40
0.8888888888888891
 40
0.8888888888888891
 40
0.8888888888888891
 40
0.8888888888888891
 40
1.0
 40
1.0
 40
1.0
 40
1.0
 10
-0.120240157480315
 20
2.742393700787402
 30
0.0
 10
-0.2653464566929134
 20
2.632385826771654
 30
0.0
 10
-0.3418740157480315
 20
2.495893700787402
 30
0.0
 10
-0.3498149606299212
 20
2.332925196850394
 30
0.0
 10
-0.3498149606299212
 20
2.332925196850394
 30
0.0
 10
-0.3498149606299212
 20
2.332925196850394
 30
0.0
 10
-0.3781062992125984
 20
1.867263779527559
 30
0.0
 10
-0.3781062992125984
 20
1.867263779527559
 30
0.0
 10
-0.3781062992125984
 20
1.867263779527559
 30
0.0
 10
-0.3781062992125984
 20
1.867263779527559
 30
0.0
 10
-0.4304370078740157
 20
3.312755905511811
 30
0.0
 10
-0.4304370078740157
 20
3.312755905511811
 30
0.0
 10
-0.4304370078740157
 20
3.312755905511811
 30
0.0
 10
-0.4304370078740157
 20
3.312755905511811
 30
0.0
 10
-0.3873779527559055
 20
3.311988188976378
 30
0.0
 10
-0.3873779527559055
 20
3.311988188976378
 30
0.0
 10
-0.3873779527559055
 20
3.311988188976378
 30
0.0
 10
-0.3873779527559055
 20
3.311988188976378
 30
0.0
 10
-0.4157952755905512
 20
3.586043307086614
 30
0.0
 10
-0.4157952755905512
 20
3.586043307086614
 30
0.0
 10
-0.4157952755905512
 20
3.586043307086614
 30
0.0
 10
-0.3777716535433071
 20
3.558681102362205
 30
0.0
 10
-0.2883307086614173
 20
3.54196062992126
 30
0.0
 10
-0.1474606299212599
 20
3.535889763779528
 30
0.0
 10
-0.1474606299212599
 20
3.535889763779528
 30
0.0
 10
-0.1474606299212599
 20
3.535889763779528
 30
0.0
 10
-0.0821968503937008
 20
3.534594488188977
 30
0.0
 10
-0.0821968503937008
 20
3.534594488188977
 30
0.0
 10
-0.0821968503937008
 20
3.534594488188977
 30
0.0
 10
-0.0821968503937008
 20
3.534594488188977
 30
0.0
 10
-0.0821968503937008
 20
2.757582677165354
 30
0.0
 10
-0.0821968503937008
 20
2.757582677165354
 30
0.0
 10
-0.0821968503937008
 20
2.757582677165354
 30
0.0
 10
-0.0821968503937008
 20
2.757582677165354
 30
0.0
 10
-0.120240157480315
 20
2.742393700787402
 30
0.0
 10
-0.120240157480315
 20
2.742393700787402
 30
0.0
  0
SPLINE
  5
61
330
1F
100
AcDbEntity
  8
Layer 1
 62
   250
370
     9
100
AcDbSpline
210
0.0
220
0.0
230
1.0
 70
    11
 71
     3
 72
    36
 73
    32
 74
     0
 42
0.0000000001
 43
0.0000000001
 40
0.0
 40
0.0
 40
0.0
 40
0.0
 40
0.125
 40
0.125
 40
0.125
 40
0.125
 40
0.25
 40
0.25
 40
0.25
 40
0.25
 40
0.375
 40
0.375
 40
0.375
 40
0.375
 40
0.5
 40
0.5
 40
0.5
 40
0.5
 40
0.625
 40
0.625
 40
0.625
 40
0.625
 40
0.75
 40
0.75
 40
0.75
 40
0.75
 40
0.875
 40
0.875
 40
0.875
 40
0.875
 40
1.0
 40
1.0
 40
1.0
 40
1.0
 10
-0.4823503937007874
 20
2.224271653543307
 30
0.0
 10
-0.613248031496063
 20
2.168897637795276
 30
0.0
 10
-0.6564488188976378
 20
2.083996062992126
 30
0.0
 10
-0.6119724409448819
 20
1.969566929133858
 30
0.0
 10
-0.6119724409448819
 20
1.969566929133858
 30
0.0
 10
-0.6119724409448819
 20
1.969566929133858
 30
0.0
 10
-1.24757874015748
 20
1.969566929133858
 30
0.0
 10
-1.24757874015748
 20
1.969566929133858
 30
0.0
 10
-1.24757874015748
 20
1.969566929133858
 30
0.0
 10
-1.213996062992126
 20
2.009255905511811
 30
0.0
 10
-1.132228346456693
 20
2.036665354330708
 30
0.0
 10
-1.002283464566929
 20
2.051803149606299
 30
0.0
 10
-1.002283464566929
 20
2.051803149606299
 30
0.0
 10
-0.9386417322834646
 20
2.059728346456693
 30
0.0
 10
-0.8578307086614173
 20
2.107547244094488
 30
0.0
 10
-0.7598582677165354
 20
2.195255905511811
 30
0.0
 10
-0.7598582677165354
 20
2.195255905511811
 30
0.0
 10
-0.756003937007874
 20
2.198716535433071
 30
0.0
 10
-0.7518267716535433
 20
2.201877952755905
 30
0.0
 10
-0.7473188976377952
 20
2.204748031496063
 30
0.0
 10
-0.7473188976377952
 20
2.204748031496063
 30
0.0
 10
-0.7121811023622048
 20
2.23290157480315
 30
0.0
 10
-0.6251732283464567
 20
2.239641732283465
 30
0.0
 10
-0.4862952755905512
 20
2.224972440944882
 30
0.0
 10
-0.4862952755905512
 20
2.224972440944882
 30
0.0
 10
-0.4862952755905512
 20
2.224972440944882
 30
0.0
 10
-0.4861692913385827
 20
2.224303149606299
 30
0.0
 10
-0.4861692913385827
 20
2.224303149606299
 30
0.0
 10
-0.4861692913385827
 20
2.224303149606299
 30
0.0
 10
-0.4861692913385827
 20
2.224303149606299
 30
0.0
 10
-0.4823503937007874
 20
2.224271653543307
 30
0.0
 10
-0.4823503937007874
 20
2.224271653543307
 30
0.0
  0
SPLINE
  5
62
330
1F
100
AcDbEntity
  8
Layer 1
 62
   250
370
     9
100
AcDbSpline
210
0.0
220
0.0
230
1.0
 70
    11
 71
     3
 72
    28
 73
    24
 74
     0
 42
0.0000000001
 43
0.0000000001
 40
0.0
 40
0.0
 40
0.0
 40
0.0
 40
0.1666666666666667
 40
0.1666666666666667
 40
0.1666666666666667
 40
0.1666666666666667
 40
0.3333333333333333
 40
0.3333333333333333
 40
0.3333333333333333
 40
0.3333333333333333
 40
0.5
 40
0.5
 40
0.5
 40
0.5
 40
0.6666666666666666
 40
0.6666666666666666
 40
0.6666666666666666
 40
0.6666666666666666
 40
0.8333333333333333
 40
0.8333333333333333
 40
0.8333333333333333
 40
0.8333333333333333
 40
1.0
 40
1.0
 40
1.0
 40
1.0
 10
-1.42594094488189
 20
2.182381889763779
 30
0.0
 10
-1.42594094488189
 20
2.182381889763779
 30
0.0
 10
-2.108181102362205
 20
2.467062992125984
 30
0.0
 10
-2.108181102362205
 20
2.467062992125984
 30
0.0
 10
-2.108181102362205
 20
2.467062992125984
 30
0.0
 10
-2.054834645669291
 20
2.607909448818898
 30
0.0
 10
-2.019740157480315
 20
2.746015748031496
 30
0.0
 10
-2.002909448818897
 20
2.88138188976378
 30
0.0
 10
-2.002909448818897
 20
2.88138188976378
 30
0.0
 10
-1.979763779527559
 20
3.041133858267716
 30
0.0
 10
-2.008283464566929
 20
3.241299212598425
 30
0.0
 10
-2.088468503937008
 20
3.481866141732283
 30
0.0
 10
-2.088468503937008
 20
3.481866141732283
 30
0.0
 10
-1.893716535433071
 20
3.336913385826771
 30
0.0
 10
-1.744334645669291
 20
3.167834645669291
 30
0.0
 10
-1.640330708661417
 20
2.974633858267717
 30
0.0
 10
-1.640330708661417
 20
2.974633858267717
 30
0.0
 10
-1.543897637795276
 20
2.790141732283465
 30
0.0
 10
-1.455322834645669
 20
2.519700787401575
 30
0.0
 10
-1.37461811023622
 20
2.163322834645669
 30
0.0
 10
-1.37461811023622
 20
2.163322834645669
 30
0.0
 10
-1.37461811023622
 20
2.163322834645669
 30
0.0
 10
-1.42594094488189
 20
2.182381889763779
 30
0.0
 10
-1.42594094488189
 20
2.182381889763779
 30
0.0
  0
SPLINE
  5
63
330
1F
100
AcDbEntity
  8
Layer 1
 62
   250
370
     9
100
AcDbSpline
210
0.0
220
0.0
230
1.0
 70
    11
 71
     3
 72
    40
 73
    36
 74
     0
 42
0.0000000001
 43
0.0000000001
 40
0.0
 40
0.0
 40
0.0
 40
0.0
 40
0.1111111111111111
 40
0.1111111111111111
 40
0.1111111111111111
 40
0.1111111111111111
 40
0.2222222222222222
 40
0.2222222222222222
 40
0.2222222222222222
 40
0.2222222222222222
 40
0.3333333333333333
 40
0.3333333333333333
 40
0.3333333333333333
 40
0.3333333333333333
 40
0.4444444444444444
 40
0.4444444444444444
 40
0.4444444444444444
 40
0.4444444444444444
 40
0.5555555555555556
 40
0.5555555555555556
 40
0.5555555555555556
 40
0.5555555555555556
 40
0.6666666666666667
 40
0.6666666666666667
 40
0.6666666666666667
 40
0.6666666666666667
 40
0.7777777777777779
 40
0.7777777777777779
 40
0.7777777777777779
 40
0.7777777777777779
 40
0.8888888888888891
 40
0.8888888888888891
 40
0.8888888888888891
 40
0.8888888888888891
 40
1.0
 40
1.0
 40
1.0
 40
1.0
 10
-2.501956692913386
 20
2.742393700787402
 30
0.0
 10
-2.356850393700787
 20
2.632385826771654
 30
0.0
 10
-2.280322834645669
 20
2.495893700787402
 30
0.0
 10
-2.272381889763779
 20
2.332925196850394
 30
0.0
 10
-2.272381889763779
 20
2.332925196850394
 30
0.0
 10
-2.272381889763779
 20
2.332925196850394
 30
0.0
 10
-2.244090551181102
 20
1.867263779527559
 30
0.0
 10
-2.244090551181102
 20
1.867263779527559
 30
0.0
 10
-2.244090551181102
 20
1.867263779527559
 30
0.0
 10
-2.244090551181102
 20
1.867263779527559
 30
0.0
 10
-2.191759842519685
 20
3.312755905511811
 30
0.0
 10
-2.191759842519685
 20
3.312755905511811
 30
0.0
 10
-2.191759842519685
 20
3.312755905511811
 30
0.0
 10
-2.191759842519685
 20
3.312755905511811
 30
0.0
 10
-2.234818897637795
 20
3.311988188976378
 30
0.0
 10
-2.234818897637795
 20
3.311988188976378
 30
0.0
 10
-2.234818897637795
 20
3.311988188976378
 30
0.0
 10
-2.234818897637795
 20
3.311988188976378
 30
0.0
 10
-2.20640157480315
 20
3.586043307086614
 30
0.0
 10
-2.20640157480315
 20
3.586043307086614
 30
0.0
 10
-2.20640157480315
 20
3.586043307086614
 30
0.0
 10
-2.244425196850394
 20
3.558681102362205
 30
0.0
 10
-2.333866141732284
 20
3.54196062992126
 30
0.0
 10
-2.474736220472441
 20
3.535889763779528
 30
0.0
 10
-2.474736220472441
 20
3.535889763779528
 30
0.0
 10
-2.474736220472441
 20
3.535889763779528
 30
0.0
 10
-2.54
 20
3.534594488188977
 30
0.0
 10
-2.54
 20
3.534594488188977
 30
0.0
 10
-2.54
 20
3.534594488188977
 30
0.0
 10
-2.54
 20
3.534594488188977
 30
0.0
 10
-2.54
 20
2.757582677165354
 30
0.0
 10
-2.54
 20
2.757582677165354
 30
0.0
 10
-2.54
 20
2.757582677165354
 30
0.0
 10
-2.54
 20
2.757582677165354
 30
0.0
 10
-2.501956692913386
 20
2.742393700787402
 30
0.0
 10
-2.501956692913386
 20
2.742393700787402
 30
0.0
  0
SPLINE
  5
64
330
1F
100
AcDbEntity
  8
Layer 1
 62
   250
370
     9
100
AcDbSpline
210
0.0
220
0.0
230
1.0
 70
    11
 71
     3
 72
    36
 73
    32
 74
     0
 42
0.0000000001
 43
0.0000000001
 40
0.0
 40
0.0
 40
0.0
 40
0.0
 40
0.125
 40
0.125
 40
0.125
 40
0.125
 40
0.25
 40
0.25
 40
0.25
 40
0.25
 40
0.375
 40
0.375
 40
0.375
 40
0.375
 40
0.5
 40
0.5
 40
0.5
 40
0.5
 40
0.625
 40
0.625
 40
0.625
 40
0.625
 40
0.75
 40
0.75
 40
0.75
 40
0.75
 40
0.875
 40
0.875
 40
0.875
 40
0.875
 40
1.0
 40
1.0
 40
1.0
 40
1.0
 10
-2.139846456692913
 20
2.224271653543307
 30
0.0
 10
-2.008948818897638
 20
2.168897637795276
 30
0.0
 10
-1.965748031496063
 20
2.083996062992126
 30
0.0
 10
-2.010224409448819
 20
1.969566929133858
 30
0.0
 10
-2.010224409448819
 20
1.969566929133858
 30
0.0
 10
-2.010224409448819
 20
1.969566929133858
 30
0.0
 10
-1.37461811023622
 20
1.969566929133858
 30
0.0
 10
-1.37461811023622
 20
1.969566929133858
 30
0.0
 10
-1.37461811023622
 20
1.969566929133858
 30
0.0
 10
-1.408200787401575
 20
2.009255905511811
 30
0.0
 10
-1.489968503937008
 20
2.036665354330708
 30
0.0
 10
-1.619913385826772
 20
2.051803149606299
 30
0.0
 10
-1.619913385826772
 20
2.051803149606299
 30
0.0
 10
-1.683555118110236
 20
2.059728346456693
 30
0.0
 10
-1.764366141732284
 20
2.107547244094488
 30
0.0
 10
-1.862338582677165
 20
2.195255905511811
 30
0.0
 10
-1.862338582677165
 20
2.195255905511811
 30
0.0
 10
-1.866192913385827
 20
2.198716535433071
 30
0.0
 10
-1.870370078740157
 20
2.201877952755905
 30
0.0
 10
-1.874877952755905
 20
2.204748031496063
 30
0.0
 10
-1.874877952755905
 20
2.204748031496063
 30
0.0
 10
-1.910015748031496
 20
2.23290157480315
 30
0.0
 10
-1.997023622047244
 20
2.239641732283465
 30
0.0
 10
-2.13590157480315
 20
2.224972440944882
 30
0.0
 10
-2.13590157480315
 20
2.224972440944882
 30
0.0
 10
-2.13590157480315
 20
2.224972440944882
 30
0.0
 10
-2.136027559055118
 20
2.224303149606299
 30
0.0
 10
-2.136027559055118
 20
2.224303149606299
 30
0.0
 10
-2.136027559055118
 20
2.224303149606299
 30
0.0
 10
-2.136027559055118
 20
2.224303149606299
 30
0.0
 10
-2.139846456692913
 20
2.224271653543307
 30
0.0
 10
-2.139846456692913
 20
2.224271653543307
 30
0.0
  0
SPLINE
  5
65
330
1F
100
AcDbEntity
  8
Layer 1
 62
   250
370
     9
100
AcDbSpline
210
0.0
220
0.0
230
1.0
 70
    11
 71
     3
 72
   272
 73
   268
 74
     0
 42
0.0000000001
 43
0.0000000001
 40
0.0
 40
0.0
 40
0.0
 40
0.0
 40
0.0149253731343284
 40
0.0149253731343284
 40
0.0149253731343284
 40
0.0149253731343284
 40
0.0298507462686567
 40
0.0298507462686567
 40
0.0298507462686567
 40
0.0298507462686567
 40
0.0447761194029851
 40
0.0447761194029851
 40
0.0447761194029851
 40
0.0447761194029851
 40
0.0597014925373134
 40
0.0597014925373134
 40
0.0597014925373134
 40
0.0597014925373134
 40
0.0746268656716418
 40
0.0746268656716418
 40
0.0746268656716418
 40
0.0746268656716418
 40
0.0895522388059701
 40
0.0895522388059701
 40
0.0895522388059701
 40
0.0895522388059701
 40
0.1044776119402985
 40
0.1044776119402985
 40
0.1044776119402985
 40
0.1044776119402985
 40
0.1194029850746269
 40
0.1194029850746269
 40
0.1194029850746269
 40
0.1194029850746269
 40
0.1343283582089552
 40
0.1343283582089552
 40
0.1343283582089552
 40
0.1343283582089552
 40
0.1492537313432836
 40
0.1492537313432836
 40
0.1492537313432836
 40
0.1492537313432836
 40
0.1641791044776119
 40
0.1641791044776119
 40
0.1641791044776119
 40
0.1641791044776119
 40
0.1791044776119403
 40
0.1791044776119403
 40
0.1791044776119403
 40
0.1791044776119403
 40
0.1940298507462686
 40
0.1940298507462686
 40
0.1940298507462686
 40
0.1940298507462686
 40
0.208955223880597
 40
0.208955223880597
 40
0.208955223880597
 40
0.208955223880597
 40
0.2238805970149253
 40
0.2238805970149253
 40
0.2238805970149253
 40
0.2238805970149253
 40
0.2388059701492536
 40
0.2388059701492536
 40
0.2388059701492536
 40
0.2388059701492536
 40
0.253731343283582
 40
0.253731343283582
 40
0.253731343283582
 40
0.253731343283582
 40
0.2686567164179103
 40
0.2686567164179103
 40
0.2686567164179103
 40
0.2686567164179103
 40
0.2835820895522387
 40
0.2835820895522387
 40
0.2835820895522387
 40
0.2835820895522387
 40
0.298507462686567
 40
0.298507462686567
 40
0.298507462686567
 40
0.298507462686567
 40
0.3134328358208954
 40
0.3134328358208954
 40
0.3134328358208954
 40
0.3134328358208954
 40
0.3283582089552237
 40
0.3283582089552237
 40
0.3283582089552237
 40
0.3283582089552237
 40
0.3432835820895521
 40
0.3432835820895521
 40
0.3432835820895521
 40
0.3432835820895521
 40
0.3582089552238804
 40
0.3582089552238804
 40
0.3582089552238804
 40
0.3582089552238804
 40
0.3731343283582088
 40
0.3731343283582088
 40
0.3731343283582088
 40
0.3731343283582088
 40
0.3880597014925371
 40
0.3880597014925371
 40
0.3880597014925371
 40
0.3880597014925371
 40
0.4029850746268654
 40
0.4029850746268654
 40
0.4029850746268654
 40
0.4029850746268654
 40
0.4179104477611938
 40
0.4179104477611938
 40
0.4179104477611938
 40
0.4179104477611938
 40
0.4328358208955221
 40
0.4328358208955221
 40
0.4328358208955221
 40
0.4328358208955221
 40
0.4477611940298505
 40
0.4477611940298505
 40
0.4477611940298505
 40
0.4477611940298505
 40
0.4626865671641788
 40
0.4626865671641788
 40
0.4626865671641788
 40
0.4626865671641788
 40
0.4776119402985072
 40
0.4776119402985072
 40
0.4776119402985072
 40
0.4776119402985072
 40
0.4925373134328355
 40
0.4925373134328355
 40
0.4925373134328355
 40
0.4925373134328355
 40
0.5074626865671639
 40
0.5074626865671639
 40
0.5074626865671639
 40
0.5074626865671639
 40
0.5223880597014923
 40
0.5223880597014923
 40
0.5223880597014923
 40
0.5223880597014923
 40
0.5373134328358207
 40
0.5373134328358207
 40
0.5373134328358207
 40
0.5373134328358207
 40
0.5522388059701491
 40
0.5522388059701491
 40
0.5522388059701491
 40
0.5522388059701491
 40
0.5671641791044775
 40
0.5671641791044775
 40
0.5671641791044775
 40
0.5671641791044775
 40
0.5820895522388059
 40
0.5820895522388059
 40
0.5820895522388059
 40
0.5820895522388059
 40
0.5970149253731343
 40
0.5970149253731343
 40
0.5970149253731343
 40
0.5970149253731343
 40
0.6119402985074627
 40
0.6119402985074627
 40
0.6119402985074627
 40
0.6119402985074627
 40
0.6268656716417911
 40
0.6268656716417911
 40
0.6268656716417911
 40
0.6268656716417911
 40
0.6417910447761195
 40
0.6417910447761195
 40
0.6417910447761195
 40
0.6417910447761195
 40
0.6567164179104479
 40
0.6567164179104479
 40
0.6567164179104479
 40
0.6567164179104479
 40
0.6716417910447763
 40
0.6716417910447763
 40
0.6716417910447763
 40
0.6716417910447763
 40
0.6865671641791047
 40
0.6865671641791047
 40
0.6865671641791047
 40
0.6865671641791047
 40
0.7014925373134331
 40
0.7014925373134331
 40
0.7014925373134331
 40
0.7014925373134331
 40
0.7164179104477615
 40
0.7164179104477615
 40
0.7164179104477615
 40
0.7164179104477615
 40
0.7313432835820899
 40
0.7313432835820899
 40
0.7313432835820899
 40
0.7313432835820899
 40
0.7462686567164183
 40
0.7462686567164183
 40
0.7462686567164183
 40
0.7462686567164183
 40
0.7611940298507467
 40
0.7611940298507467
 40
0.7611940298507467
 40
0.7611940298507467
 40
0.7761194029850751
 40
0.7761194029850751
 40
0.7761194029850751
 40
0.7761194029850751
 40
0.7910447761194035
 40
0.7910447761194035
 40
0.7910447761194035
 40
0.7910447761194035
 40
0.8059701492537319
 40
0.8059701492537319
 40
0.8059701492537319
 40
0.8059701492537319
 40
0.8208955223880603
 40
0.8208955223880603
 40
0.8208955223880603
 40
0.8208955223880603
 40
0.8358208955223887
 40
0.8358208955223887
 40
0.8358208955223887
 40
0.8358208955223887
 40
0.8507462686567171
 40
0.8507462686567171
 40
0.8507462686567171
 40
0.8507462686567171
 40
0.8656716417910455
 40
0.8656716417910455
 40
0.8656716417910455
 40
0.8656716417910455
 40
0.8805970149253739
 40
0.8805970149253739
 40
0.8805970149253739
 40
0.8805970149253739
 40
0.8955223880597023
 40
0.8955223880597023
 40
0.8955223880597023
 40
0.8955223880597023
 40
0.9104477611940307
 40
0.9104477611940307
 40
0.9104477611940307
 40
0.9104477611940307
 40
0.9253731343283591
 40
0.9253731343283591
 40
0.9253731343283591
 40
0.9253731343283591
 40
0.9402985074626875
 40
0.9402985074626875
 40
0.9402985074626875
 40
0.9402985074626875
 40
0.9552238805970159
 40
0.9552238805970159
 40
0.9552238805970159
 40
0.9552238805970159
 40
0.9701492537313443
 40
0.9701492537313443
 40
0.9701492537313443
 40
0.9701492537313443
 40
0.9850746268656727
 40
0.9850746268656727
 40
0.9850746268656727
 40
0.9850746268656727
 40
1.0
 40
1.0
 40
1.0
 40
1.0
 10
-0.6339724409448819
 20
0.6873543307086614
 30
0.0
 10
-0.8564133858267716
 20
0.6746496062992126
 30
0.0
 10
-1.014988188976378
 20
0.6811692913385827
 30
0.0
 10
-1.109681102362205
 20
0.7069094488188976
 30
0.0
 10
-1.109681102362205
 20
0.7069094488188976
 30
0.0
 10
-1.227125984251968
 20
0.7491220472440945
 30
0.0
 10
-1.299814960629921
 20
0.7817047244094488
 30
0.0
 10
-1.327732283464567
 20
0.8046535433070866
 30
0.0
 10
-1.327732283464567
 20
0.8046535433070866
 30
0.0
 10
-1.165740157480315
 20
0.814992125984252
 30
0.0
 10
-0.9998937007874016
 20
0.8179015748031496
 30
0.0
 10
-0.8302047244094488
 20
0.8133779527559055
 30
0.0
 10
-0.8302047244094488
 20
0.8133779527559055
 30
0.0
 10
-0.8168543307086614
 20
0.8150511811023622
 30
0.0
 10
-0.7998858267716535
 20
0.8218188976377953
 30
0.0
 10
-0.7793070866141733
 20
0.8336692913385827
 30
0.0
 10
-0.7793070866141733
 20
0.8336692913385827
 30
0.0
 10
-0.7424291338582677
 20
0.8386574803149607
 30
0.0
 10
-0.6815748031496063
 20
0.8464881889763779
 30
0.0
 10
-0.596755905511811
 20
0.8571692913385827
 30
0.0
 10
-0.596755905511811
 20
0.8571692913385827
 30
0.0
 10
-0.7204921259842519
 20
0.8817125984251969
 30
0.0
 10
-0.936251968503937
 20
0.8830393700787401
 30
0.0
 10
-1.246846456692913
 20
0.8607913385826772
 30
0.0
 10
-1.246846456692913
 20
0.8607913385826772
 30
0.0
 10
-1.342208661417323
 20
0.8528661417322835
 30
0.0
 10
-1.418263779527559
 20
0.8457795275590552
 30
0.0
 10
-1.475011811023622
 20
0.8395236220472441
 30
0.0
 10
-1.475011811023622
 20
0.8395236220472441
 30
0.0
 10
-1.453661417322835
 20
0.8091929133858268
 30
0.0
 10
-1.419858267716535
 20
0.7742362204724409
 30
0.0
 10
-1.373610236220473
 20
0.7346377952755906
 30
0.0
 10
-1.373610236220473
 20
0.7346377952755906
 30
0.0
 10
-1.338937007874016
 20
0.7072559055118111
 30
0.0
 10
-1.307015748031496
 20
0.6859173228346457
 30
0.0
 10
-1.277850393700787
 20
0.6706141732283465
 30
0.0
 10
-1.277850393700787
 20
0.6706141732283465
 30
0.0
 10
-1.276259842519685
 20
0.6658346456692913
 30
0.0
 10
-1.263850393700787
 20
0.6657755905511811
 30
0.0
 10
-1.258492125984252
 20
0.6657755905511811
 30
0.0
 10
-1.258492125984252
 20
0.6657755905511811
 30
0.0
 10
-1.257889763779528
 20
0.6639606299212598
 30
0.0
 10
-1.22961811023622
 20
0.6548858267716535
 30
0.0
 10
-1.228244094488189
 20
0.6548858267716535
 30
0.0
 10
-1.228244094488189
 20
0.6548858267716535
 30
0.0
 10
-1.227535433070866
 20
0.652759842519685
 30
0.0
 10
-1.225326771653543
 20
0.6533858267716536
 30
0.0
 10
-1.224618110236221
 20
0.651255905511811
 30
0.0
 10
-1.224618110236221
 20
0.651255905511811
 30
0.0
 10
-1.212744094488189
 20
0.651255905511811
 30
0.0
 10
-1.200157480314961
 20
0.6403700787401575
 30
0.0
 10
-1.18590157480315
 20
0.6403661417322835
 30
0.0
 10
-1.18590157480315
 20
0.6403661417322835
 30
0.0
 10
-1.185251968503937
 20
0.6384133858267717
 30
0.0
 10
-1.176858267716535
 20
0.6379488188976378
 30
0.0
 10
-1.173803149606299
 20
0.6379488188976378
 30
0.0
 10
-1.173803149606299
 20
0.6379488188976378
 30
0.0
 10
-1.173803149606299
 20
0.6379488188976378
 30
0.0
 10
-1.172594488188976
 20
0.636740157480315
 30
0.0
 10
-1.172594488188976
 20
0.636740157480315
 30
0.0
 10
-1.172594488188976
 20
0.636740157480315
 30
0.0
 10
-1.041929133858268
 20
0.6028661417322835
 30
0.0
 10
-0.9306220472440945
 20
0.5560866141732284
 30
0.0
 10
-0.8386771653543307
 20
0.4963976377952756
 30
0.0
 10
-0.8386771653543307
 20
0.4963976377952756
 30
0.0
 10
-1.069322834645669
 20
0.5020826771653544
 30
0.0
 10
-1.263326771653543
 20
0.5083937007874015
 30
0.0
 10
-1.420688976377953
 20
0.5153307086614173
 30
0.0
 10
-1.420688976377953
 20
0.5153307086614173
 30
0.0
 10
-1.620464566929134
 20
0.5241417322834646
 30
0.0
 10
-1.761188976377953
 20
0.5339606299212598
 30
0.0
 10
-1.842850393700787
 20
0.5447874015748031
 30
0.0
 10
-1.842850393700787
 20
0.5447874015748031
 30
0.0
 10
-2.032397637795276
 20
0.5617244094488189
 30
0.0
 10
-2.194515748031496
 20
0.615767716535433
 30
0.0
 10
-2.329212598425197
 20
0.7069094488188976
 30
0.0
 10
-2.329212598425197
 20
0.7069094488188976
 30
0.0
 10
-2.251692913385827
 20
0.7654448818897638
 30
0.0
 10
-2.166728346456693
 20
0.8085866141732283
 30
0.0
 10
-2.074314960629921
 20
0.8363425196850394
 30
0.0
 10
-2.074314960629921
 20
0.8363425196850394
 30
0.0
 10
-2.074314960629921
 20
0.8363425196850394
 30
0.0
 10
-2.074228346456693
 20
0.8363425196850394
 30
0.0
 10
-2.074228346456693
 20
0.8363425196850394
 30
0.0
 10
-2.074228346456693
 20
0.8363425196850394
 30
0.0
 10
-2.048877952755905
 20
0.8439527559055118
 30
0.0
 10
-2.022968503937008
 20
0.8504055118110236
 30
0.0
 10
-1.996496062992126
 20
0.8557007874015748
 30
0.0
 10
-1.996496062992126
 20
0.8557007874015748
 30
0.0
 10
-1.93611811023622
 20
0.8629448818897638
 30
0.0
 10
-1.876838582677165
 20
0.8697165354330708
 30
0.0
 10
-1.818649606299213
 20
0.8760157480314961
 30
0.0
 10
-1.818649606299213
 20
0.8760157480314961
 30
0.0
 10
-1.818649606299213
 20
0.8760157480314961
 30
0.0
 10
-1.818649606299213
 20
0.8760393700787401
 30
0.0
 10
-1.818649606299213
 20
0.8760393700787401
 30
0.0
 10
-1.818649606299213
 20
0.8760393700787401
 30
0.0
 10
-1.742070866141732
 20
0.8843346456692913
 30
0.0
 10
-1.66738188976378
 20
0.8918110236220472
 30
0.0
 10
-1.594582677165354
 20
0.8984724409448819
 30
0.0
 10
-1.594582677165354
 20
0.8984724409448819
 30
0.0
 10
-1.594582677165354
 20
0.8984724409448819
 30
0.0
 10
-1.643271653543307
 20
0.8657165354330708
 30
0.0
 10
-1.643271653543307
 20
0.8657165354330708
 30
0.0
 10
-1.643271653543307
 20
0.8657165354330708
 30
0.0
 10
-1.648110236220472
 20
0.861503937007874
 30
0.0
 10
-1.652
 20
0.8596259842519685
 30
0.0
 10
-1.65494094488189
 20
0.8600708661417323
 30
0.0
 10
-1.65494094488189
 20
0.8600708661417323
 30
0.0
 10
-1.688149606299213
 20
0.8636181102362205
 30
0.0
 10
-1.722783464566929
 20
0.8285433070866142
 30
0.0
 10
-1.758842519685039
 20
0.7548503937007874
 30
0.0
 10
-1.758842519685039
 20
0.7548503937007874
 30
0.0
 10
-1.733236220472441
 20
0.7560354330708662
 30
0.0
 10
-1.693870078740157
 20
0.7565236220472441
 30
0.0
 10
-1.640759842519685
 20
0.7563188976377953
 30
0.0
 10
-1.640759842519685
 20
0.7563188976377953
 30
0.0
 10
-1.629874015748032
 20
0.7568070866141732
 30
0.0
 10
-1.617299212598425
 20
0.7548228346456692
 30
0.0
 10
-1.603051181102362
 20
0.7503700787401575
 30
0.0
 10
-1.603051181102362
 20
0.7503700787401575
 30
0.0
 10
-1.594043307086614
 20
0.7455669291338582
 30
0.0
 10
-1.584673228346457
 20
0.7424566929133858
 30
0.0
 10
-1.574944881889764
 20
0.7410275590551181
 30
0.0
 10
-1.574944881889764
 20
0.7410275590551181
 30
0.0
 10
-1.574944881889764
 20
0.7410275590551181
 30
0.0
 10
-1.57703937007874
 20
0.7516692913385826
 30
0.0
 10
-1.57703937007874
 20
0.7516692913385826
 30
0.0
 10
-1.57703937007874
 20
0.7516692913385826
 30
0.0
 10
-1.593366141732284
 20
0.7556574803149606
 30
0.0
 10
-1.603114173228346
 20
0.7606417322834645
 30
0.0
 10
-1.606275590551181
 20
0.7666220472440944
 30
0.0
 10
-1.606275590551181
 20
0.7666220472440944
 30
0.0
 10
-1.602110236220472
 20
0.800503937007874
 30
0.0
 10
-1.614232283464567
 20
0.8256299212598425
 30
0.0
 10
-1.642633858267716
 20
0.841992125984252
 30
0.0
 10
-1.642633858267716
 20
0.841992125984252
 30
0.0
 10
-1.618822834645669
 20
0.8476062992125984
 30
0.0
 10
-1.585122047244095
 20
0.8284606299212598
 30
0.0
 10
-1.541523622047244
 20
0.7845472440944882
 30
0.0
 10
-1.541523622047244
 20
0.7845472440944882
 30
0.0
 10
-1.531834645669291
 20
0.7912637795275591
 30
0.0
 10
-1.523444881889764
 20
0.8017007874015748
 30
0.0
 10
-1.516366141732284
 20
0.8158464566929133
 30
0.0
 10
-1.516366141732284
 20
0.8158464566929133
 30
0.0
 10
-1.53905905511811
 20
0.8294370078740158
 30
0.0
 10
-1.565409448818898
 20
0.8446062992125984
 30
0.0
 10
-1.595425196850394
 20
0.8613425196850394
 30
0.0
 10
-1.595425196850394
 20
0.8613425196850394
 30
0.0
 10
-1.588614173228347
 20
0.8671889763779528
 30
0.0
 10
-1.561822834645669
 20
0.881748031496063
 30
0.0
 10
-1.515055118110236
 20
0.9050157480314961
 30
0.0
 10
-1.515055118110236
 20
0.9050157480314961
 30
0.0
 10
-1.515055118110236
 20
0.9050157480314961
 30
0.0
 10
-1.521311023622047
 20
0.9048582677165354
 30
0.0
 10
-1.521311023622047
 20
0.9048582677165354
 30
0.0
 10
-1.521311023622047
 20
0.9048582677165354
 30
0.0
 10
-1.521311023622047
 20
0.9048582677165354
 30
0.0
 10
-1.521314960629921
 20
0.9049685039370079
 30
0.0
 10
-1.521314960629921
 20
0.9049685039370079
 30
0.0
 10
-1.521314960629921
 20
0.9049685039370079
 30
0.0
 10
-0.9816653543307087
 20
0.9510944881889764
 30
0.0
 10
-0.5496456692913386
 20
0.9508110236220473
 30
0.0
 10
-0.2252795275590551
 20
0.9041181102362205
 30
0.0
 10
-0.2252795275590551
 20
0.9041181102362205
 30
0.0
 10
-0.2195944881889764
 20
0.9020629921259843
 30
0.0
 10
-0.2166220472440945
 20
0.8997322834645669
 30
0.0
 10
-0.2163503937007874
 20
0.8971259842519685
 30
0.0
 10
-0.2163503937007874
 20
0.8971259842519685
 30
0.0
 10
-0.2163503937007874
 20
0.8971259842519685
 30
0.0
 10
-0.2163503937007874
 20
0.9730787401574803
 30
0.0
 10
-0.2163503937007874
 20
0.9730787401574803
 30
0.0
 10
-0.2163503937007874
 20
0.9730787401574803
 30
0.0
 10
-0.2163503937007874
 20
0.9730787401574803
 30
0.0
 10
-1.467551181102362
 20
0.9730787401574803
 30
0.0
 10
-1.467551181102362
 20
0.9730787401574803
 30
0.0
 10
-1.467551181102362
 20
0.9730787401574803
 30
0.0
 10
-1.597614173228346
 20
0.9605984251968503
 30
0.0
 10
-1.714649606299213
 20
0.9466338582677165
 30
0.0
 10
-1.818653543307087
 20
0.9311850393700788
 30
0.0
 10
-1.818653543307087
 20
0.9311850393700788
 30
0.0
 10
-1.818653543307087
 20
0.9311850393700788
 30
0.0
 10
-1.818653543307087
 20
0.9311614173228346
 30
0.0
 10
-1.818653543307087
 20
0.9311614173228346
 30
0.0
 10
-1.818653543307087
 20
0.9311614173228346
 30
0.0
 10
-1.921437007874016
 20
0.9158937007874016
 30
0.0
 10
-2.011496062992126
 20
0.8991732283464567
 30
0.0
 10
-2.088826771653543
 20
0.881003937007874
 30
0.0
 10
-2.088826771653543
 20
0.881003937007874
 30
0.0
 10
-2.127251968503937
 20
0.8694606299212598
 30
0.0
 10
-2.165488188976378
 20
0.8545826771653543
 30
0.0
 10
-2.203547244094488
 20
0.8363661417322835
 30
0.0
 10
-2.203547244094488
 20
0.8363661417322835
 30
0.0
 10
-2.203547244094488
 20
0.8363661417322835
 30
0.0
 10
-2.203602362204724
 20
0.8363661417322835
 30
0.0
 10
-2.203602362204724
 20
0.8363661417322835
 30
0.0
 10
-2.203602362204724
 20
0.8363661417322835
 30
0.0
 10
-2.27159842519685
 20
0.8038188976377952
 30
0.0
 10
-2.339015748031496
 20
0.7606220472440944
 30
0.0
 10
-2.405846456692913
 20
0.7067834645669291
 30
0.0
 10
-2.405846456692913
 20
0.7067834645669291
 30
0.0
 10
-2.322279527559055
 20
0.6303818897637795
 30
0.0
 10
-2.224984251968504
 20
0.571996062992126
 30
0.0
 10
-2.113964566929134
 20
0.5316259842519685
 30
0.0
 10
-2.113964566929134
 20
0.5316259842519685
 30
0.0
 10
-1.940204724409449
 20
0.4941850393700787
 30
0.0
 10
-1.754551181102362
 20
0.4688031496062992
 30
0.0
 10
-1.557003937007874
 20
0.4554803149606299
 30
0.0
 10
-1.557003937007874
 20
0.4554803149606299
 30
0.0
 10
-1.51001968503937
 20
0.4392677165354331
 30
0.0
 10
-1.464582677165354
 20
0.4091850393700787
 30
0.0
 10
-1.420688976377953
 20
0.3652244094488189
 30
0.0
 10
-1.420688976377953
 20
0.3652244094488189
 30
0.0
 10
-1.420688976377953
 20
0.3652244094488189
 30
0.0
 10
-1.420688976377953
 20
0.4504212598425197
 30
0.0
 10
-1.420688976377953
 20
0.4504212598425197
 30
0.0
 10
-1.420688976377953
 20
0.4504212598425197
 30
0.0
 10
-1.420688976377953
 20
0.4504212598425197
 30
0.0
 10
-0.2163503937007874
 20
0.4504212598425197
 30
0.0
 10
-0.2163503937007874
 20
0.4504212598425197
 30
0.0
 10
-0.2163503937007874
 20
0.4504212598425197
 30
0.0
 10
-0.2163503937007874
 20
0.4504212598425197
 30
0.0
 10
-0.2163503937007874
 20
0.8963425196850394
 30
0.0
 10
-0.2163503937007874
 20
0.8963425196850394
 30
0.0
 10
-0.2163503937007874
 20
0.8963425196850394
 30
0.0
 10
-0.2169881889763779
 20
0.8900551181102362
 30
0.0
 10
-0.2327244094488189
 20
0.8822283464566929
 30
0.0
 10
-0.2635590551181102
 20
0.8728622047244095
 30
0.0
 10
-0.2635590551181102
 20
0.8728622047244095
 30
0.0
 10
-0.3188346456692913
 20
0.8605590551181103
 30
0.0
 10
-0.3673779527559055
 20
0.8435551181102362
 30
0.0
 10
-0.4091771653543307
 20
0.8218464566929133
 30
0.0
 10
-0.4091771653543307
 20
0.8218464566929133
 30
0.0
 10
-0.4140787401574803
 20
0.8196456692913385
 30
0.0
 10
-0.4423110236220472
 20
0.793244094488189
 30
0.0
 10
-0.4423110236220472
 20
0.7899566929133858
 30
0.0
 10
-0.4423110236220472
 20
0.7899566929133858
 30
0.0
 10
-0.4492125984251968
 20
0.7882165354330709
 30
0.0
 10
-0.4669527559055118
 20
0.7691929133858267
 30
0.0
 10
-0.473496062992126
 20
0.7644606299212598
 30
0.0
 10
-0.473496062992126
 20
0.7644606299212598
 30
0.0
 10
-0.4788110236220472
 20
0.7606181102362205
 30
0.0
 10
-0.504988188976378
 20
0.7435118110236221
 30
0.0
 10
-0.504988188976378
 20
0.7383503937007874
 30
0.0
 10
-0.504988188976378
 20
0.7383503937007874
 30
0.0
 10
-0.5134094488188976
 20
0.7362637795275591
 30
0.0
 10
-0.5279763779527559
 20
0.7051850393700787
 30
0.0
 10
-0.5416259842519685
 20
0.7007125984251968
 30
0.0
 10
-0.5416259842519685
 20
0.7007125984251968
 30
0.0
 10
-0.5431417322834645
 20
0.6978661417322835
 30
0.0
 10
-0.543511811023622
 20
0.6970708661417323
 30
0.0
 10
-0.5464685039370079
 20
0.6970708661417323
 30
0.0
 10
-0.5464685039370079
 20
0.6970708661417323
 30
0.0
 10
-0.5466181102362204
 20
0.6966141732283465
 30
0.0
 10
-0.5591535433070867
 20
0.6922125984251969
 30
0.0
 10
-0.5600905511811024
 20
0.6922125984251969
 30
0.0
 10
-0.5600905511811024
 20
0.6922125984251969
 30
0.0
 10
-0.561751968503937
 20
0.6872362204724409
 30
0.0
 10
-0.5894094488188977
 20
0.688263779527559
 30
0.0
 10
-0.5949133858267717
 20
0.688263779527559
 30
0.0
 10
-0.5949133858267717
 20
0.688263779527559
 30
0.0
 10
-0.6028188976377953
 20
0.688263779527559
 30
0.0
 10
-0.6089960629921259
 20
0.687476377952756
 30
0.0
 10
-0.6161062992125984
 20
0.6858385826771654
 30
0.0
 10
-0.6161062992125984
 20
0.6858385826771654
 30
0.0
 10
-0.6230157480314961
 20
0.684244094488189
 30
0.0
 10
-0.6274330708661418
 20
0.6873543307086614
 30
0.0
 10
-0.6339724409448819
 20
0.6873543307086614
 30
0.0
  0
SPLINE
  5
66
330
1F
100
AcDbEntity
  8
Layer 1
 62
   250
370
     9
100
AcDbSpline
210
0.0
220
0.0
230
1.0
 70
    11
 71
     3
 72
    44
 73
    40
 74
     0
 42
0.0000000001
 43
0.0000000001
 40
0.0
 40
0.0
 40
0.0
 40
0.0
 40
0.1
 40
0.1
 40
0.1
 40
0.1
 40
0.2
 40
0.2
 40
0.2
 40
0.2
 40
0.3
 40
0.3
 40
0.3
 40
0.3
 40
0.4
 40
0.4
 40
0.4
 40
0.4
 40
0.5
 40
0.5
 40
0.5
 40
0.5
 40
0.6
 40
0.6
 40
0.6
 40
0.6
 40
0.7
 40
0.7
 40
0.7
 40
0.7
 40
0.7999999999999999
 40
0.7999999999999999
 40
0.7999999999999999
 40
0.7999999999999999
 40
0.8999999999999999
 40
0.8999999999999999
 40
0.8999999999999999
 40
0.8999999999999999
 40
1.0
 40
1.0
 40
1.0
 40
1.0
 10
-1.65444094488189
 20
0.8408937007874016
 30
0.0
 10
-1.635011811023622
 20
0.8314409448818898
 30
0.0
 10
-1.626700787401575
 20
0.8143503937007874
 30
0.0
 10
-1.629496062992126
 20
0.7896338582677165
 30
0.0
 10
-1.629496062992126
 20
0.7896338582677165
 30
0.0
 10
-1.632031496062992
 20
0.7744724409448819
 30
0.0
 10
-1.640629921259843
 20
0.7671220472440945
 30
0.0
 10
-1.655283464566929
 20
0.7675826771653543
 30
0.0
 10
-1.655283464566929
 20
0.7675826771653543
 30
0.0
 10
-1.700255905511811
 20
0.7655866141732284
 30
0.0
 10
-1.727913385826772
 20
0.7652952755905512
 30
0.0
 10
-1.738248031496063
 20
0.7667047244094488
 30
0.0
 10
-1.738248031496063
 20
0.7667047244094488
 30
0.0
 10
-1.728023622047244
 20
0.7869488188976378
 30
0.0
 10
-1.71792125984252
 20
0.8031181102362205
 30
0.0
 10
-1.707944881889764
 20
0.8152322834645669
 30
0.0
 10
-1.707944881889764
 20
0.8152322834645669
 30
0.0
 10
-1.710283464566929
 20
0.8110354330708661
 30
0.0
 10
-1.711566929133858
 20
0.8061299212598425
 30
0.0
 10
-1.711433070866142
 20
0.8009251968503937
 30
0.0
 10
-1.711433070866142
 20
0.8009251968503937
 30
0.0
 10
-1.711043307086614
 20
0.7858622047244095
 30
0.0
 10
-1.698937007874016
 20
0.7739527559055118
 30
0.0
 10
-1.684393700787401
 20
0.7743267716535434
 30
0.0
 10
-1.684393700787401
 20
0.7743267716535434
 30
0.0
 10
-1.669854330708662
 20
0.7747007874015748
 30
0.0
 10
-1.658377952755905
 20
0.7872204724409448
 30
0.0
 10
-1.658763779527559
 20
0.8022834645669291
 30
0.0
 10
-1.658763779527559
 20
0.8022834645669291
 30
0.0
 10
-1.659149606299213
 20
0.8173464566929134
 30
0.0
 10
-1.671259842519685
 20
0.829255905511811
 30
0.0
 10
-1.685799212598425
 20
0.8288818897637795
 30
0.0
 10
-1.685799212598425
 20
0.8288818897637795
 30
0.0
 10
-1.690952755905512
 20
0.828748031496063
 30
0.0
 10
-1.695720472440945
 20
0.8270905511811023
 30
0.0
 10
-1.699712598425197
 20
0.8243346456692914
 30
0.0
 10
-1.699712598425197
 20
0.8243346456692914
 30
0.0
 10
-1.684326771653543
 20
0.8396535433070866
 30
0.0
 10
-1.669236220472441
 20
0.8451732283464567
 30
0.0
 10
-1.65444094488189
 20
0.8408937007874016
 30
0.0
  0
SPLINE
  5
67
330
1F
100
AcDbEntity
  8
Layer 1
 62
   250
370
     9
100
AcDbSpline
210
0.0
220
0.0
230
1.0
 70
    11
 71
     3
 72
    20
 73
    16
 74
     0
 42
0.0000000001
 43
0.0000000001
 40
0.0
 40
0.0
 40
0.0
 40
0.0
 40
0.25
 40
0.25
 40
0.25
 40
0.25
 40
0.5
 40
0.5
 40
0.5
 40
0.5
 40
0.75
 40
0.75
 40
0.75
 40
0.75
 40
1.0
 40
1.0
 40
1.0
 40
1.0
 10
-2.031586614173228
 20
0.62948031496063
 30
0.0
 10
-2.015492125984252
 20
0.6385866141732284
 30
0.0
 10
-2.006759842519685
 20
0.6551850393700788
 30
0.0
 10
-2.005397637795276
 20
0.679263779527559
 30
0.0
 10
-2.005397637795276
 20
0.679263779527559
 30
0.0
 10
-2.020535433070866
 20
0.6529566929133859
 30
0.0
 10
-2.03405905511811
 20
0.6395984251968504
 30
0.0
 10
-2.045968503937008
 20
0.6391968503937008
 30
0.0
 10
-2.045968503937008
 20
0.6391968503937008
 30
0.0
 10
-2.050759842519685
 20
0.6378267716535433
 30
0.0
 10
-2.052220472440945
 20
0.6345393700787402
 30
0.0
 10
-2.05036220472441
 20
0.6293267716535433
 30
0.0
 10
-2.05036220472441
 20
0.6293267716535433
 30
0.0
 10
-2.045913385826772
 20
0.6248228346456693
 30
0.0
 10
-2.039657480314961
 20
0.6248779527559055
 30
0.0
 10
-2.031586614173228
 20
0.62948031496063
 30
0.0
  0
SPLINE
  5
68
330
1F
100
AcDbEntity
  8
Layer 1
 62
   250
370
     9
100
AcDbSpline
210
0.0
220
0.0
230
1.0
 70
    11
 71
     3
 72
    20
 73
    16
 74
     0
 42
0.0000000001
 43
0.0000000001
 40
0.0
 40
0.0
 40
0.0
 40
0.0
 40
0.25
 40
0.25
 40
0.25
 40
0.25
 40
0.5
 40
0.5
 40
0.5
 40
0.5
 40
0.75
 40
0.75
 40
0.75
 40
0.75
 40
1.0
 40
1.0
 40
1.0
 40
1.0
 10
-0.716240157480315
 20
0.5155433070866142
 30
0.0
 10
-0.7494724409448819
 20
0.5279251968503937
 30
0.0
 10
-0.7705393700787402
 20
0.5461456692913386
 30
0.0
 10
-0.7794330708661418
 20
0.5701929133858268
 30
0.0
 10
-0.7794330708661418
 20
0.5701929133858268
 30
0.0
 10
-0.7899645669291339
 20
0.5865905511811024
 30
0.0
 10
-0.8140748031496063
 20
0.6080905511811023
 30
0.0
 10
-0.851755905511811
 20
0.6346811023622048
 30
0.0
 10
-0.851755905511811
 20
0.6346811023622048
 30
0.0
 10
-0.7607086614173229
 20
0.6314015748031496
 30
0.0
 10
-0.7075826771653543
 20
0.6026220472440945
 30
0.0
 10
-0.6923661417322835
 20
0.5483346456692914
 30
0.0
 10
-0.6923661417322835
 20
0.5483346456692914
 30
0.0
 10
-0.6909606299212598
 20
0.5242874015748031
 30
0.0
 10
-0.6989173228346457
 20
0.5133582677165355
 30
0.0
 10
-0.716240157480315
 20
0.5155433070866142
 30
0.0
  0
SPLINE
  5
69
330
1F
100
AcDbEntity
  8
Layer 1
 62
   250
370
     9
100
AcDbSpline
210
0.0
220
0.0
230
1.0
 70
    11
 71
     3
 72
    24
 73
    20
 74
     0
 42
0.0000000001
 43
0.0000000001
 40
0.0
 40
0.0
 40
0.0
 40
0.0
 40
0.2
 40
0.2
 40
0.2
 40
0.2
 40
0.4
 40
0.4
 40
0.4
 40
0.4
 40
0.6000000000000001
 40
0.6000000000000001
 40
0.6000000000000001
 40
0.6000000000000001
 40
0.8
 40
0.8
 40
0.8
 40
0.8
 40
1.0
 40
1.0
 40
1.0
 40
1.0
 10
-0.5022244094488189
 20
0.6010275590551181
 30
0.0
 10
-0.5201850393700788
 20
0.6208385826771654
 30
0.0
 10
-0.5299251968503937
 20
0.634748031496063
 30
0.0
 10
-0.5332165354330709
 20
0.6428070866141732
 30
0.0
 10
-0.5332165354330709
 20
0.6428070866141732
 30
0.0
 10
-0.4829645669291339
 20
0.6415275590551182
 30
0.0
 10
-0.4529094488188977
 20
0.6230196850393701
 30
0.0
 10
-0.4430511811023622
 20
0.5872913385826771
 30
0.0
 10
-0.4430511811023622
 20
0.5872913385826771
 30
0.0
 10
-0.4432834645669291
 20
0.5713582677165354
 30
0.0
 10
-0.4510354330708661
 20
0.5653070866141733
 30
0.0
 10
-0.4662952755905512
 20
0.5691535433070866
 30
0.0
 10
-0.4662952755905512
 20
0.5691535433070866
 30
0.0
 10
-0.4738031496062992
 20
0.5713503937007874
 30
0.0
 10
-0.4808582677165354
 20
0.5779488188976378
 30
0.0
 10
-0.4874291338582677
 20
0.5889409448818897
 30
0.0
 10
-0.4874291338582677
 20
0.5889409448818897
 30
0.0
 10
-0.4942322834645669
 20
0.5973700787401575
 30
0.0
 10
-0.4991692913385827
 20
0.6014015748031496
 30
0.0
 10
-0.5022244094488189
 20
0.6010275590551181
 30
0.0
  0
SPLINE
  5
6A
330
1F
100
AcDbEntity
  8
Layer 1
 62
   250
370
     9
100
AcDbSpline
210
0.0
220
0.0
230
1.0
 70
    11
 71
     3
 72
    16
 73
    12
 74
     0
 42
0.0000000001
 43
0.0000000001
 40
0.0
 40
0.0
 40
0.0
 40
0.0
 40
0.3333333333333333
 40
0.3333333333333333
 40
0.3333333333333333
 40
0.3333333333333333
 40
0.6666666666666666
 40
0.6666666666666666
 40
0.6666666666666666
 40
0.6666666666666666
 40
1.0
 40
1.0
 40
1.0
 40
1.0
 10
-0.6708070866141732
 20
0.6297598425196851
 30
0.0
 10
-0.672007874015748
 20
0.6299212598425197
 30
0.0
 10
-0.6732244094488189
 20
0.6300590551181102
 30
0.0
 10
-0.6744527559055118
 20
0.6301653543307086
 30
0.0
 10
-0.6744527559055118
 20
0.6301653543307086
 30
0.0
 10
-0.6744527559055118
 20
0.6301653543307086
 30
0.0
 10
-0.6723425196850393
 20
0.6312637795275591
 30
0.0
 10
-0.6723425196850393
 20
0.6312637795275591
 30
0.0
 10
-0.6723425196850393
 20
0.6312637795275591
 30
0.0
 10
-0.6722755905511811
 20
0.6309606299212599
 30
0.0
 10
-0.6716968503937008
 20
0.6304291338582677
 30
0.0
 10
-0.6708070866141732
 20
0.6297598425196851
 30
0.0
  0
SPLINE
  5
6B
330
1F
100
AcDbEntity
  8
Layer 1
 62
   250
370
     9
100
AcDbSpline
210
0.0
220
0.0
230
1.0
 70
    11
 71
     3
 72
    32
 73
    28
 74
     0
 42
0.0000000001
 43
0.0000000001
 40
0.0
 40
0.0
 40
0.0
 40
0.0
 40
0.1428571428571428
 40
0.1428571428571428
 40
0.1428571428571428
 40
0.1428571428571428
 40
0.2857142857142857
 40
0.2857142857142857
 40
0.2857142857142857
 40
0.2857142857142857
 40
0.4285714285714285
 40
0.4285714285714285
 40
0.4285714285714285
 40
0.4285714285714285
 40
0.5714285714285714
 40
0.5714285714285714
 40
0.5714285714285714
 40
0.5714285714285714
 40
0.7142857142857142
 40
0.7142857142857142
 40
0.7142857142857142
 40
0.7142857142857142
 40
0.857142857142857
 40
0.857142857142857
 40
0.857142857142857
 40
0.857142857142857
 40
1.0
 40
1.0
 40
1.0
 40
1.0
 10
-0.658251968503937
 20
0.6208267716535433
 30
0.0
 10
-0.6601456692913386
 20
0.6229566929133858
 30
0.0
 10
-0.6675590551181102
 20
0.6273070866141732
 30
0.0
 10
-0.6708070866141732
 20
0.6297598425196851
 30
0.0
 10
-0.6708070866141732
 20
0.6297598425196851
 30
0.0
 10
-0.6588464566929134
 20
0.6281456692913386
 30
0.0
 10
-0.648244094488189
 20
0.6241220472440945
 30
0.0
 10
-0.6364133858267716
 20
0.6241220472440945
 30
0.0
 10
-0.6364133858267716
 20
0.6241220472440945
 30
0.0
 10
-0.6156653543307087
 20
0.6241220472440945
 30
0.0
 10
-0.5985866141732283
 20
0.6139409448818898
 30
0.0
 10
-0.580767716535433
 20
0.6015826771653543
 30
0.0
 10
-0.580767716535433
 20
0.6015826771653543
 30
0.0
 10
-0.5742125984251969
 20
0.5970314960629921
 30
0.0
 10
-0.5442637795275591
 20
0.572263779527559
 30
0.0
 10
-0.5543503937007874
 20
0.5565078740157481
 30
0.0
 10
-0.5543503937007874
 20
0.5565078740157481
 30
0.0
 10
-0.5726692913385827
 20
0.5278976377952755
 30
0.0
 10
-0.5974488188976378
 20
0.5444763779527559
 30
0.0
 10
-0.6149291338582678
 20
0.5685984251968504
 30
0.0
 10
-0.6149291338582678
 20
0.5685984251968504
 30
0.0
 10
-0.6238188976377953
 20
0.5808661417322835
 30
0.0
 10
-0.6331811023622047
 20
0.5944566929133859
 30
0.0
 10
-0.6438149606299213
 20
0.6026811023622047
 30
0.0
 10
-0.6438149606299213
 20
0.6026811023622047
 30
0.0
 10
-0.649507874015748
 20
0.6070826771653544
 30
0.0
 10
-0.6534212598425196
 20
0.6153700787401575
 30
0.0
 10
-0.658251968503937
 20
0.6208267716535433
 30
0.0
  0
SPLINE
  5
6C
330
1F
100
AcDbEntity
  8
Layer 1
 62
   250
370
     9
100
AcDbSpline
210
0.0
220
0.0
230
1.0
 70
    11
 71
     3
 72
   272
 73
   268
 74
     0
 42
0.0000000001
 43
0.0000000001
 40
0.0
 40
0.0
 40
0.0
 40
0.0
 40
0.0149253731343284
 40
0.0149253731343284
 40
0.0149253731343284
 40
0.0149253731343284
 40
0.0298507462686567
 40
0.0298507462686567
 40
0.0298507462686567
 40
0.0298507462686567
 40
0.0447761194029851
 40
0.0447761194029851
 40
0.0447761194029851
 40
0.0447761194029851
 40
0.0597014925373134
 40
0.0597014925373134
 40
0.0597014925373134
 40
0.0597014925373134
 40
0.0746268656716418
 40
0.0746268656716418
 40
0.0746268656716418
 40
0.0746268656716418
 40
0.0895522388059701
 40
0.0895522388059701
 40
0.0895522388059701
 40
0.0895522388059701
 40
0.1044776119402985
 40
0.1044776119402985
 40
0.1044776119402985
 40
0.1044776119402985
 40
0.1194029850746269
 40
0.1194029850746269
 40
0.1194029850746269
 40
0.1194029850746269
 40
0.1343283582089552
 40
0.1343283582089552
 40
0.1343283582089552
 40
0.1343283582089552
 40
0.1492537313432836
 40
0.1492537313432836
 40
0.1492537313432836
 40
0.1492537313432836
 40
0.1641791044776119
 40
0.1641791044776119
 40
0.1641791044776119
 40
0.1641791044776119
 40
0.1791044776119403
 40
0.1791044776119403
 40
0.1791044776119403
 40
0.1791044776119403
 40
0.1940298507462686
 40
0.1940298507462686
 40
0.1940298507462686
 40
0.1940298507462686
 40
0.208955223880597
 40
0.208955223880597
 40
0.208955223880597
 40
0.208955223880597
 40
0.2238805970149253
 40
0.2238805970149253
 40
0.2238805970149253
 40
0.2238805970149253
 40
0.2388059701492536
 40
0.2388059701492536
 40
0.2388059701492536
 40
0.2388059701492536
 40
0.253731343283582
 40
0.253731343283582
 40
0.253731343283582
 40
0.253731343283582
 40
0.2686567164179103
 40
0.2686567164179103
 40
0.2686567164179103
 40
0.2686567164179103
 40
0.2835820895522387
 40
0.2835820895522387
 40
0.2835820895522387
 40
0.2835820895522387
 40
0.298507462686567
 40
0.298507462686567
 40
0.298507462686567
 40
0.298507462686567
 40
0.3134328358208954
 40
0.3134328358208954
 40
0.3134328358208954
 40
0.3134328358208954
 40
0.3283582089552237
 40
0.3283582089552237
 40
0.3283582089552237
 40
0.3283582089552237
 40
0.3432835820895521
 40
0.3432835820895521
 40
0.3432835820895521
 40
0.3432835820895521
 40
0.3582089552238804
 40
0.3582089552238804
 40
0.3582089552238804
 40
0.3582089552238804
 40
0.3731343283582088
 40
0.3731343283582088
 40
0.3731343283582088
 40
0.3731343283582088
 40
0.3880597014925371
 40
0.3880597014925371
 40
0.3880597014925371
 40
0.3880597014925371
 40
0.4029850746268654
 40
0.4029850746268654
 40
0.4029850746268654
 40
0.4029850746268654
 40
0.4179104477611938
 40
0.4179104477611938
 40
0.4179104477611938
 40
0.4179104477611938
 40
0.4328358208955221
 40
0.4328358208955221
 40
0.4328358208955221
 40
0.4328358208955221
 40
0.4477611940298505
 40
0.4477611940298505
 40
0.4477611940298505
 40
0.4477611940298505
 40
0.4626865671641788
 40
0.4626865671641788
 40
0.4626865671641788
 40
0.4626865671641788
 40
0.4776119402985072
 40
0.4776119402985072
 40
0.4776119402985072
 40
0.4776119402985072
 40
0.4925373134328355
 40
0.4925373134328355
 40
0.4925373134328355
 40
0.4925373134328355
 40
0.5074626865671639
 40
0.5074626865671639
 40
0.5074626865671639
 40
0.5074626865671639
 40
0.5223880597014923
 40
0.5223880597014923
 40
0.5223880597014923
 40
0.5223880597014923
 40
0.5373134328358207
 40
0.5373134328358207
 40
0.5373134328358207
 40
0.5373134328358207
 40
0.5522388059701491
 40
0.5522388059701491
 40
0.5522388059701491
 40
0.5522388059701491
 40
0.5671641791044775
 40
0.5671641791044775
 40
0.5671641791044775
 40
0.5671641791044775
 40
0.5820895522388059
 40
0.5820895522388059
 40
0.5820895522388059
 40
0.5820895522388059
 40
0.5970149253731343
 40
0.5970149253731343
 40
0.5970149253731343
 40
0.5970149253731343
 40
0.6119402985074627
 40
0.6119402985074627
 40
0.6119402985074627
 40
0.6119402985074627
 40
0.6268656716417911
 40
0.6268656716417911
 40
0.6268656716417911
 40
0.6268656716417911
 40
0.6417910447761195
 40
0.6417910447761195
 40
0.6417910447761195
 40
0.6417910447761195
 40
0.6567164179104479
 40
0.6567164179104479
 40
0.6567164179104479
 40
0.6567164179104479
 40
0.6716417910447763
 40
0.6716417910447763
 40
0.6716417910447763
 40
0.6716417910447763
 40
0.6865671641791047
 40
0.6865671641791047
 40
0.6865671641791047
 40
0.6865671641791047
 40
0.7014925373134331
 40
0.7014925373134331
 40
0.7014925373134331
 40
0.7014925373134331
 40
0.7164179104477615
 40
0.7164179104477615
 40
0.7164179104477615
 40
0.7164179104477615
 40
0.7313432835820899
 40
0.7313432835820899
 40
0.7313432835820899
 40
0.7313432835820899
 40
0.7462686567164183
 40
0.7462686567164183
 40
0.7462686567164183
 40
0.7462686567164183
 40
0.7611940298507467
 40
0.7611940298507467
 40
0.7611940298507467
 40
0.7611940298507467
 40
0.7761194029850751
 40
0.7761194029850751
 40
0.7761194029850751
 40
0.7761194029850751
 40
0.7910447761194035
 40
0.7910447761194035
 40
0.7910447761194035
 40
0.7910447761194035
 40
0.8059701492537319
 40
0.8059701492537319
 40
0.8059701492537319
 40
0.8059701492537319
 40
0.8208955223880603
 40
0.8208955223880603
 40
0.8208955223880603
 40
0.8208955223880603
 40
0.8358208955223887
 40
0.8358208955223887
 40
0.8358208955223887
 40
0.8358208955223887
 40
0.8507462686567171
 40
0.8507462686567171
 40
0.8507462686567171
 40
0.8507462686567171
 40
0.8656716417910455
 40
0.8656716417910455
 40
0.8656716417910455
 40
0.8656716417910455
 40
0.8805970149253739
 40
0.8805970149253739
 40
0.8805970149253739
 40
0.8805970149253739
 40
0.8955223880597023
 40
0.8955223880597023
 40
0.8955223880597023
 40
0.8955223880597023
 40
0.9104477611940307
 40
0.9104477611940307
 40
0.9104477611940307
 40
0.9104477611940307
 40
0.9253731343283591
 40
0.9253731343283591
 40
0.9253731343283591
 40
0.9253731343283591
 40
0.9402985074626875
 40
0.9402985074626875
 40
0.9402985074626875
 40
0.9402985074626875
 40
0.9552238805970159
 40
0.9552238805970159
 40
0.9552238805970159
 40
0.9552238805970159
 40
0.9701492537313443
 40
0.9701492537313443
 40
0.9701492537313443
 40
0.9701492537313443
 40
0.9850746268656727
 40
0.9850746268656727
 40
0.9850746268656727
 40
0.9850746268656727
 40
1.0
 40
1.0
 40
1.0
 40
1.0
 10
-1.988224409448819
 20
1.431929133858268
 30
0.0
 10
-1.765783464566929
 20
1.419224409448819
 30
0.0
 10
-1.607208661417323
 20
1.425740157480315
 30
0.0
 10
-1.512515748031496
 20
1.451484251968504
 30
0.0
 10
-1.512515748031496
 20
1.451484251968504
 30
0.0
 10
-1.395070866141732
 20
1.493696850393701
 30
0.0
 10
-1.32238188976378
 20
1.526275590551181
 30
0.0
 10
-1.294464566929134
 20
1.549228346456693
 30
0.0
 10
-1.294464566929134
 20
1.549228346456693
 30
0.0
 10
-1.456456692913386
 20
1.559566929133858
 30
0.0
 10
-1.622303149606299
 20
1.562476377952756
 30
0.0
 10
-1.791992125984252
 20
1.557952755905512
 30
0.0
 10
-1.791992125984252
 20
1.557952755905512
 30
0.0
 10
-1.805342519685039
 20
1.559625984251968
 30
0.0
 10
-1.822311023622047
 20
1.566389763779528
 30
0.0
 10
-1.842889763779528
 20
1.578244094488189
 30
0.0
 10
-1.842889763779528
 20
1.578244094488189
 30
0.0
 10
-1.879767716535433
 20
1.583228346456693
 30
0.0
 10
-1.940622047244094
 20
1.591062992125984
 30
0.0
 10
-2.02544094488189
 20
1.601744094488189
 30
0.0
 10
-2.02544094488189
 20
1.601744094488189
 30
0.0
 10
-1.901704724409449
 20
1.626287401574803
 30
0.0
 10
-1.685944881889764
 20
1.627614173228346
 30
0.0
 10
-1.375350393700787
 20
1.605362204724409
 30
0.0
 10
-1.375350393700787
 20
1.605362204724409
 30
0.0
 10
-1.279988188976378
 20
1.597437007874016
 30
0.0
 10
-1.203933070866142
 20
1.590350393700787
 30
0.0
 10
-1.147185039370079
 20
1.58409842519685
 30
0.0
 10
-1.147185039370079
 20
1.58409842519685
 30
0.0
 10
-1.168535433070866
 20
1.553767716535433
 30
0.0
 10
-1.202338582677165
 20
1.518807086614173
 30
0.0
 10
-1.248586614173228
 20
1.479212598425197
 30
0.0
 10
-1.248586614173228
 20
1.479212598425197
 30
0.0
 10
-1.283259842519685
 20
1.451830708661417
 30
0.0
 10
-1.315181102362205
 20
1.430488188976378
 30
0.0
 10
-1.344346456692913
 20
1.415188976377953
 30
0.0
 10
-1.344346456692913
 20
1.415188976377953
 30
0.0
 10
-1.345937007874016
 20
1.410409448818898
 30
0.0
 10
-1.358346456692913
 20
1.410350393700787
 30
0.0
 10
-1.363704724409449
 20
1.410350393700787
 30
0.0
 10
-1.363704724409449
 20
1.410350393700787
 30
0.0
 10
-1.364307086614173
 20
1.408535433070866
 30
0.0
 10
-1.39257874015748
 20
1.39946062992126
 30
0.0
 10
-1.393952755905512
 20
1.39946062992126
 30
0.0
 10
-1.393952755905512
 20
1.39946062992126
 30
0.0
 10
-1.394661417322835
 20
1.397330708661417
 30
0.0
 10
-1.396870078740158
 20
1.39796062992126
 30
0.0
 10
-1.39757874015748
 20
1.395830708661417
 30
0.0
 10
-1.39757874015748
 20
1.395830708661417
 30
0.0
 10
-1.409452755905512
 20
1.395830708661417
 30
0.0
 10
-1.42203937007874
 20
1.38494094488189
 30
0.0
 10
-1.436295275590551
 20
1.38494094488189
 30
0.0
 10
-1.436295275590551
 20
1.38494094488189
 30
0.0
 10
-1.436944881889764
 20
1.382988188976378
 30
0.0
 10
-1.445338582677165
 20
1.382523622047244
 30
0.0
 10
-1.448393700787401
 20
1.382523622047244
 30
0.0
 10
-1.448393700787401
 20
1.382523622047244
 30
0.0
 10
-1.448393700787401
 20
1.382523622047244
 30
0.0
 10
-1.449602362204724
 20
1.381311023622047
 30
0.0
 10
-1.449602362204724
 20
1.381311023622047
 30
0.0
 10
-1.449602362204724
 20
1.381311023622047
 30
0.0
 10
-1.580267716535433
 20
1.34744094488189
 30
0.0
 10
-1.691574803149606
 20
1.300661417322835
 30
0.0
 10
-1.78351968503937
 20
1.240968503937008
 30
0.0
 10
-1.78351968503937
 20
1.240968503937008
 30
0.0
 10
-1.552874015748031
 20
1.246653543307087
 30
0.0
 10
-1.358870078740158
 20
1.252964566929134
 30
0.0
 10
-1.201507874015748
 20
1.259905511811024
 30
0.0
 10
-1.201507874015748
 20
1.259905511811024
 30
0.0
 10
-1.001732283464567
 20
1.268716535433071
 30
0.0
 10
-0.8610078740157481
 20
1.278535433070866
 30
0.0
 10
-0.7793464566929134
 20
1.28936220472441
 30
0.0
 10
-0.7793464566929134
 20
1.28936220472441
 30
0.0
 10
-0.5897992125984252
 20
1.306299212598425
 30
0.0
 10
-0.4276811023622047
 20
1.360342519685039
 30
0.0
 10
-0.2929842519685039
 20
1.451484251968504
 30
0.0
 10
-0.2929842519685039
 20
1.451484251968504
 30
0.0
 10
-0.370503937007874
 20
1.51001968503937
 30
0.0
 10
-0.4554685039370079
 20
1.553161417322835
 30
0.0
 10
-0.5478818897637795
 20
1.580913385826772
 30
0.0
 10
-0.5478818897637795
 20
1.580913385826772
 30
0.0
 10
-0.5478818897637795
 20
1.580913385826772
 30
0.0
 10
-0.5479685039370079
 20
1.580913385826772
 30
0.0
 10
-0.5479685039370079
 20
1.580913385826772
 30
0.0
 10
-0.5479685039370079
 20
1.580913385826772
 30
0.0
 10
-0.5733188976377953
 20
1.588527559055118
 30
0.0
 10
-0.5992283464566929
 20
1.59498031496063
 30
0.0
 10
-0.6257007874015748
 20
1.600271653543307
 30
0.0
 10
-0.6257007874015748
 20
1.600271653543307
 30
0.0
 10
-0.6860787401574803
 20
1.60751968503937
 30
0.0
 10
-0.7453582677165355
 20
1.614291338582677
 30
0.0
 10
-0.8035472440944882
 20
1.620590551181102
 30
0.0
 10
-0.8035472440944882
 20
1.620590551181102
 30
0.0
 10
-0.8035472440944882
 20
1.620590551181102
 30
0.0
 10
-0.8035472440944882
 20
1.620614173228347
 30
0.0
 10
-0.8035472440944882
 20
1.620614173228347
 30
0.0
 10
-0.8035472440944882
 20
1.620614173228347
 30
0.0
 10
-0.8801259842519685
 20
1.628909448818898
 30
0.0
 10
-0.9548149606299212
 20
1.636385826771654
 30
0.0
 10
-1.027614173228346
 20
1.643047244094488
 30
0.0
 10
-1.027614173228346
 20
1.643047244094488
 30
0.0
 10
-1.027614173228346
 20
1.643047244094488
 30
0.0
 10
-0.9789251968503937
 20
1.610291338582677
 30
0.0
 10
-0.9789251968503937
 20
1.610291338582677
 30
0.0
 10
-0.9789251968503937
 20
1.610291338582677
 30
0.0
 10
-0.9740866141732284
 20
1.60607874015748
 30
0.0
 10
-0.9701968503937007
 20
1.604196850393701
 30
0.0
 10
-0.9672559055118111
 20
1.604645669291339
 30
0.0
 10
-0.9672559055118111
 20
1.604645669291339
 30
0.0
 10
-0.9340472440944881
 20
1.608192913385827
 30
0.0
 10
-0.8994133858267717
 20
1.573114173228346
 30
0.0
 10
-0.8633543307086614
 20
1.499425196850394
 30
0.0
 10
-0.8633543307086614
 20
1.499425196850394
 30
0.0
 10
-0.8889606299212598
 20
1.500606299212598
 30
0.0
 10
-0.9283267716535433
 20
1.501094488188976
 30
0.0
 10
-0.9814370078740158
 20
1.500889763779528
 30
0.0
 10
-0.9814370078740158
 20
1.500889763779528
 30
0.0
 10
-0.9923228346456693
 20
1.50138188976378
 30
0.0
 10
-1.004897637795276
 20
1.499397637795276
 30
0.0
 10
-1.019145669291339
 20
1.494944881889764
 30
0.0
 10
-1.019145669291339
 20
1.494944881889764
 30
0.0
 10
-1.028153543307087
 20
1.490137795275591
 30
0.0
 10
-1.037523622047244
 20
1.487027559055118
 30
0.0
 10
-1.047251968503937
 20
1.485602362204724
 30
0.0
 10
-1.047251968503937
 20
1.485602362204724
 30
0.0
 10
-1.047251968503937
 20
1.485602362204724
 30
0.0
 10
-1.045157480314961
 20
1.496240157480315
 30
0.0
 10
-1.045157480314961
 20
1.496240157480315
 30
0.0
 10
-1.045157480314961
 20
1.496240157480315
 30
0.0
 10
-1.028830708661417
 20
1.500232283464567
 30
0.0
 10
-1.019082677165354
 20
1.505216535433071
 30
0.0
 10
-1.01592125984252
 20
1.511196850393701
 30
0.0
 10
-1.01592125984252
 20
1.511196850393701
 30
0.0
 10
-1.020086614173228
 20
1.545074803149606
 30
0.0
 10
-1.007964566929134
 20
1.570200787401575
 30
0.0
 10
-0.9795629921259843
 20
1.586566929133858
 30
0.0
 10
-0.9795629921259843
 20
1.586566929133858
 30
0.0
 10
-1.003374015748032
 20
1.592181102362205
 30
0.0
 10
-1.037074803149606
 20
1.573035433070866
 30
0.0
 10
-1.080673228346457
 20
1.529122047244095
 30
0.0
 10
-1.080673228346457
 20
1.529122047244095
 30
0.0
 10
-1.090362204724409
 20
1.535834645669291
 30
0.0
 10
-1.098751968503937
 20
1.546271653543307
 30
0.0
 10
-1.105830708661417
 20
1.560417322834646
 30
0.0
 10
-1.105830708661417
 20
1.560417322834646
 30
0.0
 10
-1.083137795275591
 20
1.574011811023622
 30
0.0
 10
-1.056787401574803
 20
1.589181102362205
 30
0.0
 10
-1.026771653543307
 20
1.605917322834646
 30
0.0
 10
-1.026771653543307
 20
1.605917322834646
 30
0.0
 10
-1.033582677165354
 20
1.611763779527559
 30
0.0
 10
-1.060374015748031
 20
1.626318897637795
 30
0.0
 10
-1.107141732283464
 20
1.649590551181102
 30
0.0
 10
-1.107141732283464
 20
1.649590551181102
 30
0.0
 10
-1.107141732283464
 20
1.649590551181102
 30
0.0
 10
-1.100885826771653
 20
1.649429133858268
 30
0.0
 10
-1.100885826771653
 20
1.649429133858268
 30
0.0
 10
-1.100885826771653
 20
1.649429133858268
 30
0.0
 10
-1.100885826771653
 20
1.649429133858268
 30
0.0
 10
-1.10088188976378
 20
1.649543307086614
 30
0.0
 10
-1.10088188976378
 20
1.649543307086614
 30
0.0
 10
-1.10088188976378
 20
1.649543307086614
 30
0.0
 10
-1.640531496062992
 20
1.695669291338583
 30
0.0
 10
-2.072551181102362
 20
1.695385826771654
 30
0.0
 10
-2.396917322834646
 20
1.648688976377953
 30
0.0
 10
-2.396917322834646
 20
1.648688976377953
 30
0.0
 10
-2.402602362204724
 20
1.646633858267716
 30
0.0
 10
-2.405574803149606
 20
1.644303149606299
 30
0.0
 10
-2.405846456692913
 20
1.641700787401575
 30
0.0
 10
-2.405846456692913
 20
1.641700787401575
 30
0.0
 10
-2.405846456692913
 20
1.641700787401575
 30
0.0
 10
-2.405846456692913
 20
1.717653543307087
 30
0.0
 10
-2.405846456692913
 20
1.717653543307087
 30
0.0
 10
-2.405846456692913
 20
1.717653543307087
 30
0.0
 10
-2.405846456692913
 20
1.717653543307087
 30
0.0
 10
-1.154645669291338
 20
1.717653543307087
 30
0.0
 10
-1.154645669291338
 20
1.717653543307087
 30
0.0
 10
-1.154645669291338
 20
1.717653543307087
 30
0.0
 10
-1.024582677165354
 20
1.705173228346457
 30
0.0
 10
-0.9075472440944882
 20
1.691208661417323
 30
0.0
 10
-0.8035433070866141
 20
1.675759842519685
 30
0.0
 10
-0.8035433070866141
 20
1.675759842519685
 30
0.0
 10
-0.8035433070866141
 20
1.675759842519685
 30
0.0
 10
-0.8035433070866141
 20
1.675736220472441
 30
0.0
 10
-0.8035433070866141
 20
1.675736220472441
 30
0.0
 10
-0.8035433070866141
 20
1.675736220472441
 30
0.0
 10
-0.700759842519685
 20
1.660464566929134
 30
0.0
 10
-0.6107007874015749
 20
1.643744094488189
 30
0.0
 10
-0.5333700787401575
 20
1.62557874015748
 30
0.0
 10
-0.5333700787401575
 20
1.62557874015748
 30
0.0
 10
-0.4949448818897638
 20
1.614035433070866
 30
0.0
 10
-0.4567086614173229
 20
1.599153543307087
 30
0.0
 10
-0.4186496062992126
 20
1.580937007874016
 30
0.0
 10
-0.4186496062992126
 20
1.580937007874016
 30
0.0
 10
-0.4186496062992126
 20
1.580937007874016
 30
0.0
 10
-0.4185944881889764
 20
1.580937007874016
 30
0.0
 10
-0.4185944881889764
 20
1.580937007874016
 30
0.0
 10
-0.4185944881889764
 20
1.580937007874016
 30
0.0
 10
-0.3505984251968504
 20
1.548389763779528
 30
0.0
 10
-0.2831811023622047
 20
1.505196850393701
 30
0.0
 10
-0.2163503937007874
 20
1.451354330708661
 30
0.0
 10
-0.2163503937007874
 20
1.451354330708661
 30
0.0
 10
-0.2999173228346457
 20
1.374956692913386
 30
0.0
 10
-0.3972125984251969
 20
1.316570866141732
 30
0.0
 10
-0.508232283464567
 20
1.276200787401575
 30
0.0
 10
-0.508232283464567
 20
1.276200787401575
 30
0.0
 10
-0.681992125984252
 20
1.238759842519685
 30
0.0
 10
-0.8676456692913386
 20
1.213377952755905
 30
0.0
 10
-1.065192913385827
 20
1.200051181102362
 30
0.0
 10
-1.065192913385827
 20
1.200051181102362
 30
0.0
 10
-1.112177165354331
 20
1.183838582677165
 30
0.0
 10
-1.157614173228346
 20
1.153759842519685
 30
0.0
 10
-1.201507874015748
 20
1.109795275590551
 30
0.0
 10
-1.201507874015748
 20
1.109795275590551
 30
0.0
 10
-1.201507874015748
 20
1.109795275590551
 30
0.0
 10
-1.201507874015748
 20
1.194996062992126
 30
0.0
 10
-1.201507874015748
 20
1.194996062992126
 30
0.0
 10
-1.201507874015748
 20
1.194996062992126
 30
0.0
 10
-1.201507874015748
 20
1.194996062992126
 30
0.0
 10
-2.405846456692913
 20
1.194996062992126
 30
0.0
 10
-2.405846456692913
 20
1.194996062992126
 30
0.0
 10
-2.405846456692913
 20
1.194996062992126
 30
0.0
 10
-2.405846456692913
 20
1.194996062992126
 30
0.0
 10
-2.405846456692913
 20
1.640913385826772
 30
0.0
 10
-2.405846456692913
 20
1.640913385826772
 30
0.0
 10
-2.405846456692913
 20
1.640913385826772
 30
0.0
 10
-2.405208661417323
 20
1.634629921259843
 30
0.0
 10
-2.389472440944882
 20
1.626803149606299
 30
0.0
 10
-2.358637795275591
 20
1.617437007874016
 30
0.0
 10
-2.358637795275591
 20
1.617437007874016
 30
0.0
 10
-2.303362204724409
 20
1.605133858267717
 30
0.0
 10
-2.254818897637795
 20
1.588129921259843
 30
0.0
 10
-2.21301968503937
 20
1.56642125984252
 30
0.0
 10
-2.21301968503937
 20
1.56642125984252
 30
0.0
 10
-2.20811811023622
 20
1.564216535433071
 30
0.0
 10
-2.179885826771653
 20
1.537818897637795
 30
0.0
 10
-2.179885826771653
 20
1.534531496062992
 30
0.0
 10
-2.179885826771653
 20
1.534531496062992
 30
0.0
 10
-2.172984251968504
 20
1.532791338582677
 30
0.0
 10
-2.155244094488189
 20
1.513767716535433
 30
0.0
 10
-2.148700787401575
 20
1.509031496062992
 30
0.0
 10
-2.148700787401575
 20
1.509031496062992
 30
0.0
 10
-2.143385826771654
 20
1.505188976377953
 30
0.0
 10
-2.117208661417323
 20
1.488082677165354
 30
0.0
 10
-2.117208661417323
 20
1.482925196850394
 30
0.0
 10
-2.117208661417323
 20
1.482925196850394
 30
0.0
 10
-2.108787401574803
 20
1.480838582677165
 30
0.0
 10
-2.094220472440945
 20
1.449755905511811
 30
0.0
 10
-2.080570866141732
 20
1.445287401574803
 30
0.0
 10
-2.080570866141732
 20
1.445287401574803
 30
0.0
 10
-2.079055118110236
 20
1.44244094488189
 30
0.0
 10
-2.078685039370079
 20
1.441641732283464
 30
0.0
 10
-2.075728346456693
 20
1.441641732283464
 30
0.0
 10
-2.075728346456693
 20
1.441641732283464
 30
0.0
 10
-2.07557874015748
 20
1.441185039370079
 30
0.0
 10
-2.063043307086614
 20
1.436783464566929
 30
0.0
 10
-2.062106299212598
 20
1.436783464566929
 30
0.0
 10
-2.062106299212598
 20
1.436783464566929
 30
0.0
 10
-2.060444881889764
 20
1.431811023622047
 30
0.0
 10
-2.032787401574803
 20
1.432838582677165
 30
0.0
 10
-2.027283464566929
 20
1.432838582677165
 30
0.0
 10
-2.027283464566929
 20
1.432838582677165
 30
0.0
 10
-2.019377952755906
 20
1.432838582677165
 30
0.0
 10
-2.013200787401575
 20
1.432047244094488
 30
0.0
 10
-2.006090551181102
 20
1.430409448818898
 30
0.0
 10
-2.006090551181102
 20
1.430409448818898
 30
0.0
 10
-1.999181102362205
 20
1.428818897637795
 30
0.0
 10
-1.994763779527559
 20
1.431929133858268
 30
0.0
 10
-1.988224409448819
 20
1.431929133858268
 30
0.0
  0
SPLINE
  5
6D
330
1F
100
AcDbEntity
  8
Layer 1
 62
   250
370
     9
100
AcDbSpline
210
0.0
220
0.0
230
1.0
 70
    11
 71
     3
 72
    44
 73
    40
 74
     0
 42
0.0000000001
 43
0.0000000001
 40
0.0
 40
0.0
 40
0.0
 40
0.0
 40
0.1
 40
0.1
 40
0.1
 40
0.1
 40
0.2
 40
0.2
 40
0.2
 40
0.2
 40
0.3
 40
0.3
 40
0.3
 40
0.3
 40
0.4
 40
0.4
 40
0.4
 40
0.4
 40
0.5
 40
0.5
 40
0.5
 40
0.5
 40
0.6
 40
0.6
 40
0.6
 40
0.6
 40
0.7
 40
0.7
 40
0.7
 40
0.7
 40
0.7999999999999999
 40
0.7999999999999999
 40
0.7999999999999999
 40
0.7999999999999999
 40
0.8999999999999999
 40
0.8999999999999999
 40
0.8999999999999999
 40
0.8999999999999999
 40
1.0
 40
1.0
 40
1.0
 40
1.0
 10
-0.967755905511811
 20
1.585468503937008
 30
0.0
 10
-0.9871850393700787
 20
1.576011811023622
 30
0.0
 10
-0.995496062992126
 20
1.558925196850394
 30
0.0
 10
-0.9927007874015749
 20
1.534208661417323
 30
0.0
 10
-0.9927007874015749
 20
1.534208661417323
 30
0.0
 10
-0.9901653543307086
 20
1.519047244094488
 30
0.0
 10
-0.9815669291338582
 20
1.511696850393701
 30
0.0
 10
-0.9669133858267717
 20
1.512157480314961
 30
0.0
 10
-0.9669133858267717
 20
1.512157480314961
 30
0.0
 10
-0.9219409448818897
 20
1.510161417322835
 30
0.0
 10
-0.8942834645669291
 20
1.509870078740158
 30
0.0
 10
-0.8839488188976378
 20
1.511279527559055
 30
0.0
 10
-0.8839488188976378
 20
1.511279527559055
 30
0.0
 10
-0.8941732283464567
 20
1.531523622047244
 30
0.0
 10
-0.9042755905511811
 20
1.547692913385827
 30
0.0
 10
-0.914251968503937
 20
1.559807086614173
 30
0.0
 10
-0.914251968503937
 20
1.559807086614173
 30
0.0
 10
-0.9119133858267716
 20
1.555606299212599
 30
0.0
 10
-0.9106299212598425
 20
1.550704724409449
 30
0.0
 10
-0.910763779527559
 20
1.5455
 30
0.0
 10
-0.910763779527559
 20
1.5455
 30
0.0
 10
-0.9111535433070866
 20
1.530437007874016
 30
0.0
 10
-0.9232598425196851
 20
1.518523622047244
 30
0.0
 10
-0.9378031496062992
 20
1.51890157480315
 30
0.0
 10
-0.9378031496062992
 20
1.51890157480315
 30
0.0
 10
-0.9523425196850394
 20
1.519275590551181
 30
0.0
 10
-0.9638188976377953
 20
1.531795275590551
 30
0.0
 10
-0.9634330708661417
 20
1.546854330708662
 30
0.0
 10
-0.9634330708661417
 20
1.546854330708662
 30
0.0
 10
-0.9630472440944882
 20
1.56192125984252
 30
0.0
 10
-0.9509370078740157
 20
1.573830708661417
 30
0.0
 10
-0.9363976377952756
 20
1.573456692913386
 30
0.0
 10
-0.9363976377952756
 20
1.573456692913386
 30
0.0
 10
-0.931244094488189
 20
1.573322834645669
 30
0.0
 10
-0.926476377952756
 20
1.571665354330709
 30
0.0
 10
-0.9224842519685039
 20
1.568909448818898
 30
0.0
 10
-0.9224842519685039
 20
1.568909448818898
 30
0.0
 10
-0.9378700787401575
 20
1.584228346456693
 30
0.0
 10
-0.9529606299212598
 20
1.589748031496063
 30
0.0
 10
-0.967755905511811
 20
1.585468503937008
 30
0.0
  0
SPLINE
  5
6E
330
1F
100
AcDbEntity
  8
Layer 1
 62
   250
370
     9
100
AcDbSpline
210
0.0
220
0.0
230
1.0
 70
    11
 71
     3
 72
    20
 73
    16
 74
     0
 42
0.0000000001
 43
0.0000000001
 40
0.0
 40
0.0
 40
0.0
 40
0.0
 40
0.25
 40
0.25
 40
0.25
 40
0.25
 40
0.5
 40
0.5
 40
0.5
 40
0.5
 40
0.75
 40
0.75
 40
0.75
 40
0.75
 40
1.0
 40
1.0
 40
1.0
 40
1.0
 10
-0.5906102362204725
 20
1.374055118110236
 30
0.0
 10
-0.6067047244094488
 20
1.383161417322835
 30
0.0
 10
-0.6154370078740158
 20
1.399755905511811
 30
0.0
 10
-0.6167992125984252
 20
1.423838582677165
 30
0.0
 10
-0.6167992125984252
 20
1.423838582677165
 30
0.0
 10
-0.6016614173228346
 20
1.397531496062992
 30
0.0
 10
-0.5881377952755905
 20
1.384173228346457
 30
0.0
 10
-0.576228346456693
 20
1.383767716535433
 30
0.0
 10
-0.576228346456693
 20
1.383767716535433
 30
0.0
 10
-0.5714370078740157
 20
1.38240157480315
 30
0.0
 10
-0.5699763779527559
 20
1.379114173228347
 30
0.0
 10
-0.5718346456692913
 20
1.37390157480315
 30
0.0
 10
-0.5718346456692913
 20
1.37390157480315
 30
0.0
 10
-0.5762834645669291
 20
1.369397637795276
 30
0.0
 10
-0.5825393700787401
 20
1.369448818897638
 30
0.0
 10
-0.5906102362204725
 20
1.374055118110236
 30
0.0
  0
SPLINE
  5
6F
330
1F
100
AcDbEntity
  8
Layer 1
 62
   250
370
     9
100
AcDbSpline
210
0.0
220
0.0
230
1.0
 70
    11
 71
     3
 72
    20
 73
    16
 74
     0
 42
0.0000000001
 43
0.0000000001
 40
0.0
 40
0.0
 40
0.0
 40
0.0
 40
0.25
 40
0.25
 40
0.25
 40
0.25
 40
0.5
 40
0.5
 40
0.5
 40
0.5
 40
0.75
 40
0.75
 40
0.75
 40
0.75
 40
1.0
 40
1.0
 40
1.0
 40
1.0
 10
-1.905956692913386
 20
1.260114173228347
 30
0.0
 10
-1.872724409448819
 20
1.2725
 30
0.0
 10
-1.851657480314961
 20
1.290720472440945
 30
0.0
 10
-1.842763779527559
 20
1.314767716535433
 30
0.0
 10
-1.842763779527559
 20
1.314767716535433
 30
0.0
 10
-1.832232283464567
 20
1.331161417322835
 30
0.0
 10
-1.808122047244094
 20
1.352661417322835
 30
0.0
 10
-1.77044094488189
 20
1.379251968503937
 30
0.0
 10
-1.77044094488189
 20
1.379251968503937
 30
0.0
 10
-1.861488188976378
 20
1.375976377952756
 30
0.0
 10
-1.914614173228346
 20
1.347196850393701
 30
0.0
 10
-1.929830708661417
 20
1.292905511811024
 30
0.0
 10
-1.929830708661417
 20
1.292905511811024
 30
0.0
 10
-1.931236220472441
 20
1.268858267716535
 30
0.0
 10
-1.923279527559055
 20
1.257933070866142
 30
0.0
 10
-1.905956692913386
 20
1.260114173228347
 30
0.0
  0
SPLINE
  5
70
330
1F
100
AcDbEntity
  8
Layer 1
 62
   250
370
     9
100
AcDbSpline
210
0.0
220
0.0
230
1.0
 70
    11
 71
     3
 72
    24
 73
    20
 74
     0
 42
0.0000000001
 43
0.0000000001
 40
0.0
 40
0.0
 40
0.0
 40
0.0
 40
0.2
 40
0.2
 40
0.2
 40
0.2
 40
0.4
 40
0.4
 40
0.4
 40
0.4
 40
0.6000000000000001
 40
0.6000000000000001
 40
0.6000000000000001
 40
0.6000000000000001
 40
0.8
 40
0.8
 40
0.8
 40
0.8
 40
1.0
 40
1.0
 40
1.0
 40
1.0
 10
-2.119972440944882
 20
1.345602362204724
 30
0.0
 10
-2.102011811023622
 20
1.365413385826772
 30
0.0
 10
-2.092271653543307
 20
1.379322834645669
 30
0.0
 10
-2.08898031496063
 20
1.38738188976378
 30
0.0
 10
-2.08898031496063
 20
1.38738188976378
 30
0.0
 10
-2.139232283464567
 20
1.386102362204724
 30
0.0
 10
-2.169287401574803
 20
1.367594488188976
 30
0.0
 10
-2.179145669291338
 20
1.33186220472441
 30
0.0
 10
-2.179145669291338
 20
1.33186220472441
 30
0.0
 10
-2.178913385826772
 20
1.315929133858268
 30
0.0
 10
-2.171161417322835
 20
1.30988188976378
 30
0.0
 10
-2.15590157480315
 20
1.313728346456693
 30
0.0
 10
-2.15590157480315
 20
1.313728346456693
 30
0.0
 10
-2.148393700787401
 20
1.315925196850394
 30
0.0
 10
-2.141338582677165
 20
1.32251968503937
 30
0.0
 10
-2.134767716535433
 20
1.333515748031496
 30
0.0
 10
-2.134767716535433
 20
1.333515748031496
 30
0.0
 10
-2.127964566929134
 20
1.341944881889764
 30
0.0
 10
-2.123027559055118
 20
1.345976377952756
 30
0.0
 10
-2.119972440944882
 20
1.345602362204724
 30
0.0
  0
SPLINE
  5
71
330
1F
100
AcDbEntity
  8
Layer 1
 62
   250
370
     9
100
AcDbSpline
210
0.0
220
0.0
230
1.0
 70
    11
 71
     3
 72
    16
 73
    12
 74
     0
 42
0.0000000001
 43
0.0000000001
 40
0.0
 40
0.0
 40
0.0
 40
0.0
 40
0.3333333333333333
 40
0.3333333333333333
 40
0.3333333333333333
 40
0.3333333333333333
 40
0.6666666666666666
 40
0.6666666666666666
 40
0.6666666666666666
 40
0.6666666666666666
 40
1.0
 40
1.0
 40
1.0
 40
1.0
 10
-1.951389763779528
 20
1.374330708661417
 30
0.0
 10
-1.950188976377953
 20
1.374496062992126
 30
0.0
 10
-1.948972440944882
 20
1.374629921259843
 30
0.0
 10
-1.947744094488189
 20
1.374740157480315
 30
0.0
 10
-1.947744094488189
 20
1.374740157480315
 30
0.0
 10
-1.947744094488189
 20
1.374740157480315
 30
0.0
 10
-1.949854330708661
 20
1.375834645669291
 30
0.0
 10
-1.949854330708661
 20
1.375834645669291
 30
0.0
 10
-1.949854330708661
 20
1.375834645669291
 30
0.0
 10
-1.94992125984252
 20
1.375535433070866
 30
0.0
 10
-1.9505
 20
1.375003937007874
 30
0.0
 10
-1.951389763779528
 20
1.374330708661417
 30
0.0
  0
SPLINE
  5
72
330
1F
100
AcDbEntity
  8
Layer 1
 62
   250
370
     9
100
AcDbSpline
210
0.0
220
0.0
230
1.0
 70
    11
 71
     3
 72
    32
 73
    28
 74
     0
 42
0.0000000001
 43
0.0000000001
 40
0.0
 40
0.0
 40
0.0
 40
0.0
 40
0.1428571428571428
 40
0.1428571428571428
 40
0.1428571428571428
 40
0.1428571428571428
 40
0.2857142857142857
 40
0.2857142857142857
 40
0.2857142857142857
 40
0.2857142857142857
 40
0.4285714285714285
 40
0.4285714285714285
 40
0.4285714285714285
 40
0.4285714285714285
 40
0.5714285714285714
 40
0.5714285714285714
 40
0.5714285714285714
 40
0.5714285714285714
 40
0.7142857142857142
 40
0.7142857142857142
 40
0.7142857142857142
 40
0.7142857142857142
 40
0.857142857142857
 40
0.857142857142857
 40
0.857142857142857
 40
0.857142857142857
 40
1.0
 40
1.0
 40
1.0
 40
1.0
 10
-1.963944881889764
 20
1.365397637795276
 30
0.0
 10
-1.962051181102362
 20
1.367531496062992
 30
0.0
 10
-1.95463779527559
 20
1.371881889763779
 30
0.0
 10
-1.951389763779528
 20
1.374330708661417
 30
0.0
 10
-1.951389763779528
 20
1.374330708661417
 30
0.0
 10
-1.963350393700787
 20
1.372720472440945
 30
0.0
 10
-1.973952755905512
 20
1.368692913385827
 30
0.0
 10
-1.985783464566929
 20
1.368692913385827
 30
0.0
 10
-1.985783464566929
 20
1.368692913385827
 30
0.0
 10
-2.006531496062992
 20
1.368692913385827
 30
0.0
 10
-2.023610236220473
 20
1.358515748031496
 30
0.0
 10
-2.041429133858268
 20
1.346157480314961
 30
0.0
 10
-2.041429133858268
 20
1.346157480314961
 30
0.0
 10
-2.047984251968504
 20
1.341606299212598
 30
0.0
 10
-2.077933070866142
 20
1.316838582677165
 30
0.0
 10
-2.067846456692914
 20
1.30107874015748
 30
0.0
 10
-2.067846456692914
 20
1.30107874015748
 30
0.0
 10
-2.049527559055118
 20
1.272472440944882
 30
0.0
 10
-2.024748031496063
 20
1.289051181102362
 30
0.0
 10
-2.007267716535433
 20
1.313173228346457
 30
0.0
 10
-2.007267716535433
 20
1.313173228346457
 30
0.0
 10
-1.998377952755906
 20
1.32544094488189
 30
0.0
 10
-1.989015748031496
 20
1.339031496062992
 30
0.0
 10
-1.978381889763779
 20
1.347251968503937
 30
0.0
 10
-1.978381889763779
 20
1.347251968503937
 30
0.0
 10
-1.972688976377953
 20
1.351653543307087
 30
0.0
 10
-1.968775590551181
 20
1.35994094488189
 30
0.0
 10
-1.963944881889764
 20
1.365397637795276
 30
0.0
  0
LWPOLYLINE
  5
73
330
1F
100
AcDbEntity
  8
Layer 1
 62
   250
370
    18
100
AcDbPolyline
 90
        5
 70
     1
 43
0.0
 10
-2.81109842519685
 20
-0.0241653543307087
 10
0.1889015748031496
 20
-0.0241653543307087
 10
0.1889015748031496
 20
3.975433070866142
 10
-2.81109842519685
 20
3.975433070866142
 10
-2.81109842519685
 20
-0.0241653543307087
  0
ENDSEC
  0
SECTION
  2
OBJECTS
  0
DICTIONARY
  5
C
330
0
100
AcDbDictionary
281
     1
  3
ACAD_GROUP
350
D
  3
ACAD_LAYOUT
350
1A
  3
ACAD_MLEADERSTYLE
350
75
  3
ACAD_MLINESTYLE
350
17
  3
ACAD_PLOTSETTINGS
350
19
  3
ACAD_PLOTSTYLENAME
350
E
  3
ACAD_SCALELIST
350
3B
  3
ACAD_TABLESTYLE
350
74
  3
ACAD_VISUALSTYLE
350
2A
  0
DICTIONARY
  5
D
102
{ACAD_REACTORS
330
C
102
}
330
C
100
AcDbDictionary
281
     1
  0
DICTIONARY
  5
1A
102
{ACAD_REACTORS
330
C
102
}
330
C
100
AcDbDictionary
281
     1
  3
Layout1
350
1E
  3
Layout2
350
26
  3
Model
350
22
  0
DICTIONARY
  5
75
102
{ACAD_REACTORS
330
C
102
}
330
C
100
AcDbDictionary
281
     1
  0
DICTIONARY
  5
17
102
{ACAD_REACTORS
330
C
102
}
330
C
100
AcDbDictionary
281
     1
  3
Standard
350
18
  0
DICTIONARY
  5
19
102
{ACAD_REACTORS
330
C
102
}
330
C
100
AcDbDictionary
281
     1
  0
ACDBDICTIONARYWDFLT
  5
E
102
{ACAD_REACTORS
330
C
102
}
330
C
100
AcDbDictionary
281
     1
  3
Normal
350
F
100
AcDbDictionaryWithDefault
340
F
  0
DICTIONARY
  5
3B
102
{ACAD_REACTORS
330
C
102
}
330
C
100
AcDbDictionary
281
     1
  3
A0
350
3C
  3
A1
350
3D
  3
A2
350
3E
  3
A3
350
3F
  3
A4
350
40
  3
A5
350
41
  3
A6
350
42
  3
A7
350
43
  3
A8
350
44
  3
A9
350
45
  3
B0
350
46
  3
B1
350
47
  3
B2
350
48
  3
B3
350
49
  3
B4
350
4A
  3
B5
350
4B
  3
B6
350
4C
  3
B7
350
4D
  3
B8
350
4E
  3
B9
350
4F
  3
C0
350
50
  3
C1
350
51
  3
C2
350
52
  3
C3
350
53
  3
C4
350
54
  3
C5
350
55
  3
C6
350
56
  3
C7
350
57
  3
C8
350
58
  3
C9
350
59
  3
D0
350
5A
  3
D1
350
5B
  3
D2
350
5C
  0
DICTIONARY
  5
74
102
{ACAD_REACTORS
330
C
102
}
330
C
100
AcDbDictionary
281
     1
  0
DICTIONARY
  5
2A
102
{ACAD_REACTORS
330
C
102
}
330
C
100
AcDbDictionary
281
     1
  3
2dWireframe
350
2F
  3
3D Hidden
350
31
  3
3dWireframe
350
30
  3
Basic
350
32
  3
Brighten
350
36
  3
ColorChange
350
3A
  3
Conceptual
350
34
  3
Dim
350
35
  3
Facepattern
350
39
  3
Flat
350
2B
  3
FlatWithEdges
350
2C
  3
Gouraud
350
2D
  3
GouraudWithEdges
350
2E
  3
Linepattern
350
38
  3
Realistic
350
33
  3
Thicken
350
37
  0
LAYOUT
  5
1E
102
{ACAD_REACTORS
330
1A
102
}
330
1A
100
AcDbPlotSettings
  1

  2
none_device
  4

  6

 40
0.0
 41
0.0
 42
0.0
 43
0.0
 44
0.0
 45
0.0
 46
0.0
 47
0.0
 48
0.0
 49
0.0
140
0.0
141
0.0
142
1.0
143
1.0
 70
   688
 72
     0
 73
     0
 74
     5
  7

 75
    16
 76
     0
 77
     2
 78
   300
147
1.0
148
0.0
149
0.0
100
AcDbLayout
  1
Layout1
 70
     1
 71
     1
 10
0.0
 20
0.0
 11
12.0
 21
9.0
 12
0.0
 22
0.0
 32
0.0
 14
1.000000000000000E+20
 24
1.000000000000000E+20
 34
1.000000000000000E+20
 15
-1.000000000000000E+20
 25
-1.000000000000000E+20
 35
-1.000000000000000E+20
146
0.0
 13
0.0
 23
0.0
 33
0.0
 16
1.0
 26
0.0
 36
0.0
 17
0.0
 27
1.0
 37
0.0
 76
     0
330
1B
  0
LAYOUT
  5
26
102
{ACAD_REACTORS
330
1A
102
}
330
1A
100
AcDbPlotSettings
  1

  2
none_device
  4

  6

 40
0.0
 41
0.0
 42
0.0
 43
0.0
 44
0.0
 45
0.0
 46
0.0
 47
0.0
 48
0.0
 49
0.0
140
0.0
141
0.0
142
1.0
143
1.0
 70
   688
 72
     0
 73
     0
 74
     5
  7

 75
    16
 76
     0
 77
     2
 78
   300
147
1.0
148
0.0
149
0.0
100
AcDbLayout
  1
Layout2
 70
     1
 71
     2
 10
0.0
 20
0.0
 11
0.0
 21
0.0
 12
0.0
 22
0.0
 32
0.0
 14
0.0
 24
0.0
 34
0.0
 15
0.0
 25
0.0
 35
0.0
146
0.0
 13
0.0
 23
0.0
 33
0.0
 16
1.0
 26
0.0
 36
0.0
 17
0.0
 27
1.0
 37
0.0
 76
     0
330
23
  0
LAYOUT
  5
22
102
{ACAD_REACTORS
330
1A
102
}
330
1A
100
AcDbPlotSettings
  1

  2
none_device
  4

  6

 40
0.0
 41
0.0
 42
0.0
 43
0.0
 44
0.0
 45
0.0
 46
0.0
 47
0.0
 48
0.0
 49
0.0
140
0.0
141
0.0
142
1.0
143
1.0
 70
  1712
 72
     0
 73
     0
 74
     0
  7

 75
     0
 76
     0
 77
     2
 78
   300
147
1.0
148
0.0
149
0.0
100
AcDbLayout
  1
Model
 70
     1
 71
     0
 10
0.0
 20
0.0
 11
12.0
 21
9.0
 12
0.0
 22
0.0
 32
0.0
 14
-2.814570866141732
 24
-0.0276377952755906
 34
0.0
 15
0.1923740157480315
 25
3.978905511811023
 35
0.0
146
0.0
 13
0.0
 23
0.0
 33
0.0
 16
1.0
 26
0.0
 36
0.0
 17
0.0
 27
1.0
 37
0.0
 76
     0
330
1F
331
29
  0
MLINESTYLE
  5
18
102
{ACAD_REACTORS
330
17
102
}
330
17
100
AcDbMlineStyle
  2
Standard
 70
     0
  3

 62
   256
 51
90.0
 52
90.0
 71
     2
 49
0.5
 62
   256
  6
BYLAYER
 49
-0.5
 62
   256
  6
BYLAYER
  0
ACDBPLACEHOLDER
  5
F
102
{ACAD_REACTORS
330
E
102
}
330
E
  0
SCALE
  5
3C
102
{ACAD_REACTORS
330
3B
102
}
330
3B
100
AcDbScale
 70
     0
300
1:1
140
1.0
141
1.0
290
     1
  0
SCALE
  5
3D
102
{ACAD_REACTORS
330
3B
102
}
330
3B
100
AcDbScale
 70
     0
300
1:2
140
1.0
141
2.0
290
     0
  0
SCALE
  5
3E
102
{ACAD_REACTORS
330
3B
102
}
330
3B
100
AcDbScale
 70
     0
300
1:4
140
1.0
141
4.0
290
     0
  0
SCALE
  5
3F
102
{ACAD_REACTORS
330
3B
102
}
330
3B
100
AcDbScale
 70
     0
300
1:5
140
1.0
141
5.0
290
     0
  0
SCALE
  5
40
102
{ACAD_REACTORS
330
3B
102
}
330
3B
100
AcDbScale
 70
     0
300
1:8
140
1.0
141
8.0
290
     0
  0
SCALE
  5
41
102
{ACAD_REACTORS
330
3B
102
}
330
3B
100
AcDbScale
 70
     0
300
1:10
140
1.0
141
10.0
290
     0
  0
SCALE
  5
42
102
{ACAD_REACTORS
330
3B
102
}
330
3B
100
AcDbScale
 70
     0
300
1:16
140
1.0
141
16.0
290
     0
  0
SCALE
  5
43
102
{ACAD_REACTORS
330
3B
102
}
330
3B
100
AcDbScale
 70
     0
300
1:20
140
1.0
141
20.0
290
     0
  0
SCALE
  5
44
102
{ACAD_REACTORS
330
3B
102
}
330
3B
100
AcDbScale
 70
     0
300
1:30
140
1.0
141
30.0
290
     0
  0
SCALE
  5
45
102
{ACAD_REACTORS
330
3B
102
}
330
3B
100
AcDbScale
 70
     0
300
1:40
140
1.0
141
40.0
290
     0
  0
SCALE
  5
46
102
{ACAD_REACTORS
330
3B
102
}
330
3B
100
AcDbScale
 70
     0
300
1:50
140
1.0
141
50.0
290
     0
  0
SCALE
  5
47
102
{ACAD_REACTORS
330
3B
102
}
330
3B
100
AcDbScale
 70
     0
300
1:100
140
1.0
141
100.0
290
     0
  0
SCALE
  5
48
102
{ACAD_REACTORS
330
3B
102
}
330
3B
100
AcDbScale
 70
     0
300
2:1
140
2.0
141
1.0
290
     0
  0
SCALE
  5
49
102
{ACAD_REACTORS
330
3B
102
}
330
3B
100
AcDbScale
 70
     0
300
4:1
140
4.0
141
1.0
290
     0
  0
SCALE
  5
4A
102
{ACAD_REACTORS
330
3B
102
}
330
3B
100
AcDbScale
 70
     0
300
8:1
140
8.0
141
1.0
290
     0
  0
SCALE
  5
4B
102
{ACAD_REACTORS
330
3B
102
}
330
3B
100
AcDbScale
 70
     0
300
10:1
140
10.0
141
1.0
290
     0
  0
SCALE
  5
4C
102
{ACAD_REACTORS
330
3B
102
}
330
3B
100
AcDbScale
 70
     0
300
100:1
140
100.0
141
1.0
290
     0
  0
SCALE
  5
4D
102
{ACAD_REACTORS
330
3B
102
}
330
3B
100
AcDbScale
 70
     0
300
1/128" = 1'-0"
140
0.0078125
141
12.0
290
     0
  0
SCALE
  5
4E
102
{ACAD_REACTORS
330
3B
102
}
330
3B
100
AcDbScale
 70
     0
300
1/64" = 1'-0"
140
0.015625
141
12.0
290
     0
  0
SCALE
  5
4F
102
{ACAD_REACTORS
330
3B
102
}
330
3B
100
AcDbScale
 70
     0
300
1/32" = 1'-0"
140
0.03125
141
12.0
290
     0
  0
SCALE
  5
50
102
{ACAD_REACTORS
330
3B
102
}
330
3B
100
AcDbScale
 70
     0
300
1/16" = 1'-0"
140
0.0625
141
12.0
290
     0
  0
SCALE
  5
51
102
{ACAD_REACTORS
330
3B
102
}
330
3B
100
AcDbScale
 70
     0
300
3/32" = 1'-0"
140
0.09375
141
12.0
290
     0
  0
SCALE
  5
52
102
{ACAD_REACTORS
330
3B
102
}
330
3B
100
AcDbScale
 70
     0
300
1/8" = 1'-0"
140
0.125
141
12.0
290
     0
  0
SCALE
  5
53
102
{ACAD_REACTORS
330
3B
102
}
330
3B
100
AcDbScale
 70
     0
300
3/16" = 1'-0"
140
0.1875
141
12.0
290
     0
  0
SCALE
  5
54
102
{ACAD_REACTORS
330
3B
102
}
330
3B
100
AcDbScale
 70
     0
300
1/4" = 1'-0"
140
0.25
141
12.0
290
     0
  0
SCALE
  5
55
102
{ACAD_REACTORS
330
3B
102
}
330
3B
100
AcDbScale
 70
     0
300
3/8" = 1'-0"
140
0.375
141
12.0
290
     0
  0
SCALE
  5
56
102
{ACAD_REACTORS
330
3B
102
}
330
3B
100
AcDbScale
 70
     0
300
1/2" = 1'-0"
140
0.5
141
12.0
290
     0
  0
SCALE
  5
57
102
{ACAD_REACTORS
330
3B
102
}
330
3B
100
AcDbScale
 70
     0
300
3/4" = 1'-0"
140
0.75
141
12.0
290
     0
  0
SCALE
  5
58
102
{ACAD_REACTORS
330
3B
102
}
330
3B
100
AcDbScale
 70
     0
300
1" = 1'-0"
140
1.0
141
12.0
290
     0
  0
SCALE
  5
59
102
{ACAD_REACTORS
330
3B
102
}
330
3B
100
AcDbScale
 70
     0
300
1-1/2" = 1'-0"
140
1.5
141
12.0
290
     0
  0
SCALE
  5
5A
102
{ACAD_REACTORS
330
3B
102
}
330
3B
100
AcDbScale
 70
     0
300
3" = 1'-0"
140
3.0
141
12.0
290
     0
  0
SCALE
  5
5B
102
{ACAD_REACTORS
330
3B
102
}
330
3B
100
AcDbScale
 70
     0
300
6" = 1'-0"
140
6.0
141
12.0
290
     0
  0
SCALE
  5
5C
102
{ACAD_REACTORS
330
3B
102
}
330
3B
100
AcDbScale
 70
     0
300
1'-0" = 1'-0"
140
12.0
141
12.0
290
     0
  0
VISUALSTYLE
  5
2F
102
{ACAD_REACTORS
330
2A
102
}
330
2A
100
AcDbVisualStyle
  2
2dWireframe
 70
     4
 71
     0
 72
     2
 73
     0
 90
        0
 40
-0.6
 41
-30.0
 62
     5
 63
     7
421
 16777215
 74
     1
 91
        4
 64
     7
 65
   257
 75
     1
175
     1
 42
1.0
 92
        0
 66
   257
 43
1.0
 76
     1
 77
     6
 78
     2
 67
     7
 79
     5
170
     0
171
     0
290
     0
174
     0
 93
        1
 44
0.0
173
     0
291
     0
 45
0.0
  0
VISUALSTYLE
  5
31
102
{ACAD_REACTORS
330
2A
102
}
330
2A
100
AcDbVisualStyle
  2
3D Hidden
 70
     6
 71
     1
 72
     2
 73
     2
 90
        0
 40
-0.6
 41
-30.0
 62
     5
 63
     7
421
 16777215
 74
     2
 91
        2
 64
     7
 65
   257
 75
     2
175
     1
 42
40.0
 92
        0
 66
   257
 43
1.0
 76
     1
 77
     6
 78
     2
 67
     7
 79
     3
170
     0
171
     0
290
     0
174
     0
 93
        1
 44
0.0
173
     0
291
     0
 45
0.0
  0
VISUALSTYLE
  5
30
102
{ACAD_REACTORS
330
2A
102
}
330
2A
100
AcDbVisualStyle
  2
3dWireframe
 70
     5
 71
     0
 72
     2
 73
     0
 90
        0
 40
-0.6
 41
-30.0
 62
     5
 63
     7
421
 16777215
 74
     1
 91
        4
 64
     7
 65
   257
 75
     1
175
     1
 42
1.0
 92
        0
 66
   257
 43
1.0
 76
     1
 77
     6
 78
     2
 67
     7
 79
     5
170
     0
171
     0
290
     0
174
     0
 93
        1
 44
0.0
173
     0
291
     0
 45
0.0
  0
VISUALSTYLE
  5
32
102
{ACAD_REACTORS
330
2A
102
}
330
2A
100
AcDbVisualStyle
  2
Basic
 70
     7
 71
     1
 72
     0
 73
     1
 90
        0
 40
-0.6
 41
-30.0
 62
     5
 63
     7
421
 16777215
 74
     0
 91
        4
 64
     7
 65
   257
 75
     1
175
     1
 42
1.0
 92
        8
 66
     7
 43
1.0
 76
     1
 77
     6
 78
     2
 67
     7
 79
     5
170
     0
171
     0
290
     0
174
     0
 93
        1
 44
0.0
173
     0
291
     1
 45
0.0
  0
VISUALSTYLE
  5
36
102
{ACAD_REACTORS
330
2A
102
}
330
2A
100
AcDbVisualStyle
  2
Brighten
 70
    12
 71
     2
 72
     2
 73
     0
 90
        0
 40
-0.6
 41
-30.0
 62
     5
 63
     7
421
 16777215
 74
     1
 91
        4
 64
     7
 65
   257
 75
     1
175
     1
 42
1.0
 92
        8
 66
     7
 43
1.0
 76
     1
 77
     6
 78
     2
 67
     7
 79
     5
170
     0
171
     0
290
     0
174
     0
 93
        1
 44
50.0
173
     0
291
     1
 45
0.0
  0
VISUALSTYLE
  5
3A
102
{ACAD_REACTORS
330
2A
102
}
330
2A
100
AcDbVisualStyle
  2
ColorChange
 70
    16
 71
     2
 72
     2
 73
     3
 90
        0
 40
-0.6
 41
-30.0
 62
     5
 63
     8
421
  8421504
 74
     1
 91
        4
 64
     7
 65
   257
 75
     1
175
     1
 42
1.0
 92
        8
 66
     8
424
  8421504
 43
1.0
 76
     1
 77
     6
 78
     2
 67
     7
 79
     5
170
     0
171
     0
290
     0
174
     0
 93
        1
 44
0.0
173
     0
291
     1
 45
0.0
  0
VISUALSTYLE
  5
34
102
{ACAD_REACTORS
330
2A
102
}
330
2A
100
AcDbVisualStyle
  2
Conceptual
 70
     9
 71
     3
 72
     2
 73
     0
 90
        0
 40
-0.6
 41
-30.0
 62
     5
 63
     7
421
 16777215
 74
     2
 91
        2
 64
     7
 65
   257
 75
     1
175
     1
 42
40.0
 92
        8
 66
     7
 43
1.0
 76
     1
 77
     6
 78
     2
 67
     7
 79
     3
170
     0
171
     0
290
     0
174
     0
 93
        1
 44
0.0
173
     0
291
     0
 45
0.0
  0
VISUALSTYLE
  5
35
102
{ACAD_REACTORS
330
2A
102
}
330
2A
100
AcDbVisualStyle
  2
Dim
 70
    11
 71
     2
 72
     2
 73
     0
 90
        0
 40
-0.6
 41
-30.0
 62
     5
 63
     7
421
 16777215
 74
     1
 91
        4
 64
     7
 65
   257
 75
     1
175
     1
 42
1.0
 92
        8
 66
     7
 43
1.0
 76
     1
 77
     6
 78
     2
 67
     7
 79
     5
170
     0
171
     0
290
     0
174
     0
 93
        1
 44
-50.0
173
     0
291
     1
 45
0.0
  0
VISUALSTYLE
  5
39
102
{ACAD_REACTORS
330
2A
102
}
330
2A
100
AcDbVisualStyle
  2
Facepattern
 70
    15
 71
     2
 72
     2
 73
     0
 90
        0
 40
-0.6
 41
-30.0
 62
     5
 63
     7
421
 16777215
 74
     1
 91
        4
 64
     7
 65
   257
 75
     1
175
     1
 42
1.0
 92
        8
 66
     7
 43
1.0
 76
     1
 77
     6
 78
     2
 67
     7
 79
     5
170
     0
171
     0
290
     0
174
     0
 93
        1
 44
0.0
173
     0
291
     1
 45
0.0
  0
VISUALSTYLE
  5
2B
102
{ACAD_REACTORS
330
2A
102
}
330
2A
100
AcDbVisualStyle
  2
Flat
 70
     0
 71
     2
 72
     1
 73
     1
 90
        2
 40
-0.6
 41
30.0
 62
     5
 63
     7
421
 16777215
 74
     0
 91
        4
 64
     7
 65
   257
 75
     1
175
     1
 42
1.0
 92
        8
 66
     7
 43
1.0
 76
     1
 77
     6
 78
     2
 67
     7
 79
     5
170
     0
171
     0
290
     0
174
     0
 93
       13
 44
0.0
173
     0
291
     1
 45
0.0
  0
VISUALSTYLE
  5
2C
102
{ACAD_REACTORS
330
2A
102
}
330
2A
100
AcDbVisualStyle
  2
FlatWithEdges
 70
     1
 71
     2
 72
     1
 73
     1
 90
        2
 40
-0.6
 41
30.0
 62
     5
 63
     7
421
 16777215
 74
     1
 91
        4
 64
     7
 65
   257
 75
     1
175
     1
 42
1.0
 92
        0
 66
   257
 43
1.0
 76
     1
 77
     6
 78
     2
 67
     7
 79
     5
170
     0
171
     0
290
     0
174
     0
 93
       13
 44
0.0
173
     0
291
     1
 45
0.0
  0
VISUALSTYLE
  5
2D
102
{ACAD_REACTORS
330
2A
102
}
330
2A
100
AcDbVisualStyle
  2
Gouraud
 70
     2
 71
     2
 72
     2
 73
     1
 90
        2
 40
-0.6
 41
30.0
 62
     5
 63
     7
421
 16777215
 74
     0
 91
        4
 64
     7
 65
   257
 75
     1
175
     1
 42
1.0
 92
        0
 66
     7
 43
1.0
 76
     1
 77
     6
 78
     2
 67
     7
 79
     5
170
     0
171
     0
290
     0
174
     0
 93
       13
 44
0.0
173
     0
291
     1
 45
0.0
  0
VISUALSTYLE
  5
2E
102
{ACAD_REACTORS
330
2A
102
}
330
2A
100
AcDbVisualStyle
  2
GouraudWithEdges
 70
     3
 71
     2
 72
     2
 73
     1
 90
        2
 40
-0.6
 41
30.0
 62
     5
 63
     7
421
 16777215
 74
     1
 91
        4
 64
     7
 65
   257
 75
     1
175
     1
 42
1.0
 92
        0
 66
   257
 43
1.0
 76
     1
 77
     6
 78
     2
 67
     7
 79
     5
170
     0
171
     0
290
     0
174
     0
 93
       13
 44
0.0
173
     0
291
     1
 45
0.0
  0
VISUALSTYLE
  5
38
102
{ACAD_REACTORS
330
2A
102
}
330
2A
100
AcDbVisualStyle
  2
Linepattern
 70
    14
 71
     2
 72
     2
 73
     0
 90
        0
 40
-0.6
 41
-30.0
 62
     5
 63
     7
421
 16777215
 74
     1
 91
        4
 64
     7
 65
   257
 75
     7
175
     7
 42
1.0
 92
        8
 66
     7
 43
1.0
 76
     1
 77
     6
 78
     2
 67
     7
 79
     5
170
     0
171
     0
290
     0
174
     0
 93
        1
 44
0.0
173
     0
291
     1
 45
0.0
  0
VISUALSTYLE
  5
33
102
{ACAD_REACTORS
330
2A
102
}
330
2A
100
AcDbVisualStyle
  2
Realistic
 70
     8
 71
     2
 72
     2
 73
     0
 90
        0
 40
-0.6
 41
-30.0
 62
     5
 63
     7
421
 16777215
 74
     1
 91
        0
 64
     7
 65
   257
 75
     1
175
     1
 42
1.0
 92
        8
 66
     8
424
  7895160
 43
1.0
 76
     1
 77
     6
 78
     2
 67
     7
 79
     5
170
     0
171
     0
290
     0
174
     0
 93
       13
 44
0.0
173
     0
291
     0
 45
0.0
  0
VISUALSTYLE
  5
37
102
{ACAD_REACTORS
330
2A
102
}
330
2A
100
AcDbVisualStyle
  2
Thicken
 70
    13
 71
     2
 72
     2
 73
     0
 90
        0
 40
-0.6
 41
-30.0
 62
     5
 63
     7
421
 16777215
 74
     1
 91
        4
 64
     7
 65
   257
 75
     1
175
     1
 42
1.0
 92
       12
 66
     7
 43
1.0
 76
     1
 77
     6
 78
     2
 67
     7
 79
     5
170
     0
171
     0
290
     0
174
     0
 93
        1
 44
0.0
173
     0
291
     1
 45
0.0
  0
ENDSEC
  0
EOF
